Green Day - Holiday, аккорды

Прокрутка
Тональность
Шрифт
100
Intro:
   Fm         C#         Ab         Eb
e|-------------------------------------------|
B|--9---9---x-------------13--13--x----------|
G|--10--10--x--10--10--x--13--13--x--12--12--| x4 
D|-------------11--11--x-------------13--13--|
A|-------------------------------------------|
E|-------------------------------------------|

F   C#   Ab   Eb  x2
Say hey, cha...

F        C#           Ab      Eb
Hear the sound of the falling rain
F        C#         Ab   C     F
Coming down like an Armageddon flame
F        C#           Ab      Eb      C
The shame the ones who died without a name
F        C#           Ab      Eb
Hear the dogs howling out of key
F        C#         Ab   C     F
To a hymn called "Faith and Misery"
F        C#           Ab      Eb      C
I plead, the company that lost the war today

Припев:
        F       C#               Ab              Eb  
        I beg to dream and differ from the hollow lies
        F       C#               Ab              C
        This is the dawning of the rest of our lives
        On holiday.

Проигрыш:
   Fm         C#         Ab         Eb
e|-------------------------------------------|
B|--9---9---x-------------13--13--x----------|
G|--10--10--x--10--10--x--13--13--x--12--12--| x4 
D|-------------11--11--x-------------13--13--|
A|-------------------------------------------|
E|-------------------------------------------|

F        C#           Ab      Eb
Hear the drum pounding out of time
F        C#         Ab   C     F
Another protester has crossed the line
F        C#           Ab      Eb    C
To find the money's on the other side
F        C#           Ab    Eb
Can I get another amen? Amen!
F        C#         Ab   C     F
There's a flag wrapped around a score of men
F        C#           Ab      Eb  C
A gag, a plastic bag on a monument

Припев:
        F       C#               Ab              Eb  
        I beg to dream and differ from the hollow lies
        F       C#               Ab              C
        This is the dawning of the rest of our lives
        On holiday.

Bridge: F | Ab | C# | Bb | Eb | C }x2 
        F | Ab | Eb | C  | F 

Solo:
E|---------------------------------------------8-----8--|
B|--6--6--6--8/9----------------8--5-----5--6-----6-----|
G|----------------8--65--5--5--------5------------------|
D|------------------------------------------------------|
A|------------------------------------------------------|
E|------------------------------------------------------|

E|---------------------------------8--8--12--12~~--13~~-|
B|--6--6--6--8/9----------------8~----------------------|
G|----------------8--65--5--5---------------------------|
D|------------------------------------------------------|
A|------------------------------------------------------|
E|------------------------------------------------------|

F        C#           Ab      Eb
Sieg Heil to the President-Gas-Man
F        C#         Ab   C     F
"Bombs away!" is your punishment!
F        C#           Ab  Eb C
Pulverize the Eiffel Towers 
F        C#           Ab    Eb
Who criticize your government
F        C#         Ab   C     F
Bang! Bang! goes a broken classic
F        C#           Ab      Eb  C
Kill all the fags that don't agree
Triumph by fire
Setting fires is not a way that's meant for me

Eb | C | Fm

Bridge 2:
Bb (slide up to) C
Just cause
Bb (slide up to) C
Just cause
Because we're on holiday

Припев: x2
        F       C#               Ab              Eb  
        I beg to dream and differ from the hollow lies
        F       C#               Ab              C
        This is the dawning of the rest of our lives
        On holiday.

This is our lives on holiday....

Outro: F | C# | Ab | Eb }x3 x)
       F | C# | Eb | C | Fm | F    
 
 
Свернуть Распечатать

Видео