Запрещают песни Цоя, Агата Кристи, Наутилус Помпилиус, Зиверт
Отвечаем в отдельной теме

Green Day - 86, аккорды

Прокрутка
Тональность
Шрифт
100
INTRO:
Tre starts off the song, then Billie comes in 
with a quick pickscrape up:
E5 G#5 A5
E|------------------------------------------------------------------------|
B|------------------------------------------------------------------------|
G|----------------9--9-9--9-9-9-------------------------------------------|
D|-/----------/---9--9-9--9-9-9---6--6-6--6-6-6---7--7-7--7-7-7-7-7-7-7-7-|
A|-/PICKSCRAPE/---7--7-7--7-7-7---6--6-6--6-6-6---7--7-7--7-7-7-7-7-7-7-7-|
E|-/----------/-------------------4--4-4--4-4-4---5--5-5--5-5-5-5-5-5-5-5-|
x4, no scrapes on

VERSE: the repeats
E5 B5 A5
E|--------------------------------------------------------------------|
B|--------------------------------------------------------------------|
G|--------------------------------------------------------------------|
D|-2--2-2-2-2-2-2-2-2-2-2-2-2-2-9--9-9-9-9-9-9-9-9-9-7--7-7-7-7-7-7-7-|
A|-2--2-2-2-2-2-2-2-2-2-2-2-2-2-9--9-9-9-9-9-9-9-9-9-7--7-7-7-7-7-7-7-|
E|-0--0-0-0-0-0-0-0-0-0-0-0-0-0-7--7-7-7-7-7-7-7-7-7-5--5-5-5-5-5-5-5-|
| P.M.- - - - - - - - - | | P.M. - - - - - | | P.M. - - - |
What brings you around? Did you lose something the

E5 A5 E5
E|----------------------------------------------|
B|----------------------------------------------|
G|----------------------------------------2-----|
D|-2--2-2-2-2-2-2-2-2-2-2-2-2-2-2-2-2-2-2-2---2-|
A|-2--2-2-2-2-2-2-2-2-2-2-2-2-2-2-2-2-2-2-0---2-|
E|-0--0-0-0-0-0-0-0-0-0-0-0-0-0-0-0-0-0-0-----0-|
| P.M. - - - - - - - - - - - - - - |
last time you were here?

(VERSE riff as above)
You'll never find it now
It's buried deep in your identity

PRE-CHORUS:
B5 A5
E|-----------------------------------------|
B|-----------------------------------------|
G|-----------------------------------------|
D|-9--9--9--9--9--9--9--9--9---7----7---7--|
A|-9--9--9--9--9--9--9--9--9---7----7---7--|
E|-7--7--7--7--7--7--7--7--7---5----5---5--|
So stand aside and let the next one pass
Don't let the door kick you in the ass

CHORUS:
E5 G#5 A5
E|----------------------------------------------------------|
B|----------------------------------------------------------|
G|--9--9-9--9-9-9-------------------------------------------|
D|--9--9-9--9-9-9---6--6-6--6-6-6---7--7-7--7-7-7-7-7-7-7-7-|
A|--7--7-7--7-7-7---6--6-6--6-6-6---7--7-7--7-7-7-7-7-7-7-7-|
E|------------------4--4-4--4-4-4---5--5-5--5-5-5-5-5-5-5-5-|
There's no return, from eighty-six
There's no return, from eighty-six
There's no return, from eighty-six, don't even try...

Verse 2:
(VERSE riff as above)
Exit out the back
And never show your head around again
Purchase your ticket
And quickly take the last train out of town

PRE-CHORUS
CHORUS

BRIDGE:
E5 G#5 A5
E|---------------------------------------------------------|
B|---------------------------------------------------------|
G|---------------------------------------------------------|
D|-2--2-2--2-2-2---6--6-6--6-6-6---7--7-7--7-7-7-7-7-7-7-7-|
A|-2--2-2--2-2-2---6--6-6--6-6-6---7--7-7--7-7-7-7-7-7-7-7-|
E|-0--0-0--0-0-0---4--4-4--4-4-4---5--5-5--5-5-5-5-5-5-5-5-| x4

E5
E|-----------------------------------------------------------------|
B|-----------------------------------------------------------------|
G|-----------------------------------------------------------------|
D|-2--2--2--2--2-2-2-2-------------------------2--2--2--2--2-2-2-2-|
A|-2--2--2--2--2-2-2-2-(quick funky bass fill)-2--2--2--2--2-2-2-2-|
E|-0--0--0--0--0-0-0-0-------------------------0--0--0--0--0-0-0-0-|

CHORUS (end on E5)

Комментарий автора:

E5 799xxx
 
 

Видео