Запрещают песни Цоя, Агата Кристи, Наутилус Помпилиус, Зиверт
Отвечаем в отдельной теме

Green Day - 21 Guns, аккорды

Прокрутка
Тональность
Шрифт
100
//Em                   C                        
1.|--------------------|--0---------0-------|--------------------
2.|--------------------|--1---------1-------|--3----1----0-------
3.|--------------0---0-|--0-----------------|--0----0---------2--
4.|----------2---------|-------2---------2--|--0----0------------
5.|------2-------------|--3-----------------|--------------------
6.|--0-----------------|--------------------|--3-----------------
//                     Em                   C
1.|--------------------|--------------------|--0----0----0----0--
2.|--------------------|--------------------|--1----1----1----1--
3.|------------2-------|--------------0---0-|-------0----0-------
4.|-------0---------0--|----------2---------|--------------------
5.|--------------------|------2-------------|--3-----------------
6.|--2-----------------|--0-----------------|-------------------- 
//                                        
1.|--------------------|--------------------|--------------0---2-
2.|--0----1----3-------|--------------------|--------------0---0-
3.|--0----0----0----2--|----------2-------2-|----------0---0---0-
4.|--0----0----0-------|------0-------0-----|------2-------------
5.|--------------------|--------------------|--------------------
6.|--3-----------------|--2-----------------|--0-----------------
//                                        
1.|--3---------1-------|--------------------|--------------------
2.|--1---------3-------|--0----1----3-------|--------------0-----
3.|--0----0------------|--0----0----0----2--|----------2-------2-
4.|-----------------2--|--0----0----0-------|------0-------------
5.|--3-----------------|--------------------|--------------------
6.|--------------------|--3-----------------|--2----------------- 
//                                        
1.|--------------------|--------------------|--------------------
2.|--------------------|------------0----0--|--------------------
3.|--2----0----0-------|--0--------------2--|------2-------2-----
4.|--2--------------2--|-------2---------4--|----------4-------4-
5.|--3-----------------|--3-----------------|--5-----------------
6.|--------------------|--------------------|--------------------
//                     Em                   С
1.|--------------------|--------------------|--0---------0-------
2.|--------------------|--------------------|--1---------1-------
3.|------------2-------|--------------0---0-|--0-----------------
4.|-------4---------4--|----------2---------|-------2---------2--
5.|--5-----------------|------2-------------|--3-----------------
6.|--------------------|--0-----------------|-------------------- 
 
 

Видео