Запрещают песни Цоя, Агата Кристи, Наутилус Помпилиус, Зиверт
Отвечаем в отдельной теме

Green Day - Minority, аккорды

Прокрутка
Тональность
Шрифт
100
----------------------|-------0--------------|----------------------|-------------|
-------1----------3---|---1-----1--------1---|-------1----------3---|-----------X-|
---0-----0----0-----0-|-----2----------0---0-|-----0---0----0-----0-|-2--0------X-|
-----2----------0-----|-3----------0-2-------|-0-2------------0-----|-3--2-0-2--X-|
-3--------------------|----------------------|----------------------|--------3--X-|
------------3---------|----------------------|------------3---------|-------------|

[Припев]:
        C       F        G   F
        I wanna be the minority
        C       F            G   F
        I don't need your authority
        C             F       G   F
        Down with the moral majority
               C       F        G   F
        'Cause I wanna be the minority

  C        G        F           C
I pledge allegiance to the underworld
    C            G             F              C
One nation under dog, there of which I stand alone
  C           G       F                C
А face in the crowd unsung against the mold
  C              G                F          C
Without a doubt, singled out, the only way I know

[Припев]:
               C       F        G   F
        'Cause I wanna be the minority
        C       F            G   F
        I don't need your authority
        C             F       G   F
        Down with the moral majority
               C       F        G   F
        'Cause I wanna be the minority

Am             E   F   C
Stepped out of the line
Am           E    C        F
Like a sheep runs from the herd
Am           E  F   C
Marchin' out of time
Am        F     G
To my own beat, now
G                  B
The only way I know

    C          G    F               C
One light, one mind flashin' in the dark
C              G            F               C
Blinded by the silence of a thousand broken hearts
     C          G      F                 C
"For cryin' out loud," she screamed unto me
  C             G             F                C
А free-for-all, fuck 'em all, you are your own sight

[Припев]:
               C       F        G   F
        'Cause I wanna be the minority
        C       F            G   F
        I don't need your authority
        C             F       G   F
        Down with the moral majority
               C       F        G   F
        'Cause I wanna be the minority

[Проигрыш]:
Am E | F C | Am E | C F | Am E | F C | Am E | G | G B |
C G | F C | C G | F C |

    C          G    F               C
One light, one mind flashin' in the dark
C              G            F               C
Blinded by the silence of a thousand broken hearts
     C          G      F                 C
"For cryin' out loud," she screamed unto me
  C             G             F                C
А free-for-all, fuck 'em all, you are your own sight

[Припев]:
               C       F        G   F
        'Cause I wanna be the minority
        C       F            G   F
        I don't need your authority
        C             F       G   F
        Down with the moral majority
               C       F        G   F
        'Cause I wanna be the minority

        C        F         G   F
        (I wanna be) The minority
        C        F         G   F
        (I wanna be) The minority
        C        F         G   F
        (I wanna be) The minority
        C        F         G   F
        (I wanna be) The minority

----------------------|-------0--------------|----------------------|-------------|
-------1----------3---|---1-----1--------1---|-------1----------3---|-------------|
---0-----0----0-----0-|-----2----------0---0-|-----0---0----0-----0-|-2--0--------|
-----2----------0-----|-3----------0-2-------|-0-2------------0-----|-3--2-0-2----|
-3--------------------|----------------------|----------------------|--------3----|
------------3---------|----------------------|------------3---------|-------------| 
 
 

Видео