Грин Грей - MF, аккорды

Прокрутка
Тональность
Шрифт
100
Вступление:
Gm Am/C Dm7 D7 }x2

     Gm
Тебе песню пропою я,
    Am/C
Но не эту, так другую,
     Dm7
Но об этом,
          D7
Па-ра-ра-ра-рам-пам¬
  Gm       Am/C Dm7 D7
Слишком... поздно...
         Gm
С тобой нужно говорить,
     Am/C
Тебя нужно понимать,
       Dm7             D7
Но не полу-получается опять, да...
      Gm       Am/C
Уже слишком... Поздно...
  Dm7                                  D7
(говорить о том, что промелькнуло, убежало)

Gm  
И тобой, и мной,
Am/C
Падая звездой,
Dm7          D7
И поет, и любуется прибой
Gm           Am/C
Лето баю-бай, лето засыпай,
Dm7           D7
Лето-лето улетай,
Gm  
И тобой, и мной,
Am/C
Падая звездой,
Dm7          D7
И поет, и любуется прибой
Gm           Am/C
Лето баю-бай, лето засыпай,
Dm7           D7
Лето-лето, улетает...
     Gm     Am/C     Dm7 D7
e|-------5-6-5-3-----------
b|---------------3-1-3-----
g|-------------------------
Мазафака...
     Gm     Am/C     D7
e|-------5-6-5-3-----------
b|---------------3-1-3-----
g|-------------------------
Muthafuck-a...
     Gm     Am/C     Dm7 D7
e|-------5-6-5-3-----------
b|---------------3-1-3-----
g|-------------------------
Мазафака...
     Gm     Am/C   D7
e|-------5-6-5-3-----------
b|---------------3-1-------
g|-------------------------
Muthafuck-a...

        Gm                 Am/C
Вот я надену два крыла и улечу,
     Dm7            D7
И улечу туда, тУда-тУда-тудА,
           Gm      Am/C
Туда где слишком...поздно...¬
Dm7      D7
Поздно...очень...
     Gm
Я тебе ни слова не скажу,
    Am/C        Dm7             D7
А просто эту пропою, тара-пара-пам-там-пам...
            Gm      Am/C
О том что слишком...поздно...¬
 Dm7                  D7
(Говорить о том, что промелькнуло, убежало...)

Gm  
И тобой, и мной,
Am/C
Падая звездой,
Dm7          D7
И поет, и любуется прибой
Gm           Am/C
Лето баю-бай, лето засыпай,
Dm7           D7
Лето-лето улетай,
Gm  
И тобой, и мной,
Am/C
Падая звездой,
Dm7          D7
И поет, и любуется прибой
Gm           Am/C
Лето баю-бай, лето засыпай,
Dm7           D7
Лето-лето, улетает...
     Gm     Am/C     Dm7 D7
e|-------5-6-5-3-----------
b|---------------3-1-3-----
g|-------------------------
Мазафака...
     Gm     Am/C     D7
e|-------5-6-5-3-----------
b|---------------3-1-------
g|-------------------2-----
Muthafuck-a...
     Gm     Am/C     Dm7 D7
e|-------5-6-5-3-----------
b|---------------3-1-3-----
g|-------------------------
Мазафака...
     Gm     Am/C   D7
e|-------5-6-5-3-----------
b|---------------3-1-------
g|-------------------------
Muthafuck-a...

Проигрыш:
         Gm     Am/C    Dm7
e|---3-6-5-3-6-3-5-3-------
b|-3-----------------3-1-3-
g|-------------------------
         Gm     Am/C   D7
e|---3-6-5-3-6-3-5-3-------
b|-3-----------------3-1---
g|-------------------------

Gm Am/C Dm7 Gm Am/C D7

Gm  
И тобой, и мной,
Am/C
Падая звездой,
Dm7          D7
И поет, и любуется прибой
Gm           Am/C
Лето баю-бай, лето засыпай,
Dm7           D7
Лето-лето улетай,
Gm  
И тобой, и мной,
Am/C
Падая звездой,
Dm7          D7
И поет, и любуется прибой
Gm           Am/C
Лето баю-бай, лето засыпай,
Dm7           D7
Листья лета засыпают...
     Gm     Am/C     Dm7 D7
e|-------5-6-5-3-----------
b|---------------3-1-3-----
g|-------------------------
Мазафака...
     Gm     Am/C   D7
e|-------5-6-5-3-----------
b|---------------3-1-------
g|-------------------------
Muthafuck-a...
     Gm     Am/C     Dm7 D7
e|-------5-6-5-3-----------
b|---------------3-1-3-----
g|-------------------------
Мазафака...
     Gm     Am/C   D7
e|-------5-6-5-3-----------
b|---------------3-1-------
g|-------------------------
Muthafuck-a...

Заключение:
         Gm     Am/C    Dm7
e|---3-6-5-3-6-3-5-3-------
b|-3-----------------3-1-3-
g|-------------------------
         Gm     Am/C     D7
e|---3-6-5-3-6-3-5-3---------
b|-3-----------------3-2-1---
g|---------------------------
         Gm     Am/C    Dm7
e|---3-6-5-3-6-3-5-3-------
b|-3-----------------3-1-3-
g|-------------------------

Gm Am/C D7
 
 
Свернуть Распечатать

Видео