Химера - Разорались вороны, аккорды

Прокрутка
Тональность
Шрифт
100
Основная тема: (подобал пользователь hello_world)
    Em                            G
E|-----------0---------------|---------------------|
B|---------------0-----------|-----------1---------|
G|-------------------0-------|----------------0----|
D|-----------------------2---|------2--------------|
A|------2--------------------|-3-------------------|
E|-0-------------------------|---------------------|

    C                     B
E|---------------------|---------------------|
B|---------------------|---------------------|
G|-----------0---------|----------------4----|
D|----------------0----|------4---------4----|
A|------2--------------|-2----2--------------|
E|-3-------------------|---------------------|

Em          C              G        B
Разорались вороны, разлохматились тучи –
Em          C         G B
До весны осталось полгода…
Em          C              G        B
Оттепель расквашенным рылом сопливит дороги,
Em          C         G B
Только крови нет и нет свободы…

Em          C              G   B
Разревелась зима, разбухли мозги –
Em          C         G B
До смерти осталось пять лет…
Em          C              G      B
Ветра дуют, холодным духом душат все,
Em          C         G B
Что осталось в душах, только боли нет…

Em          C              G      B
Рассыпался порох, расплавились пули,
Em          C         G B
От ружья остался лишь ствол,
Em          C              G        B
Дым последней затяжки не оставил надежды
Em          C         G B
Кто все выдержал – тот ушел…

Em          C              G    B
Засохли цветы, износились носки,
Em          C         G B
От любви остались лишь сны…
Em          C              G   B
Июльский четверг всю зиму терпел,
Em          C         G B
Да так и не дожил до весны…

Em          C           G B
Жил, торопясь, помер, спеша, 
Em          C  G B
хоронили впопыхах,
Em          C              G    B
А душа – здесь рядом, здесь рядом,
Em          C         G B
Здесь рядом, здесь рядом… 

Комментарий автора:

Комментарий от пользователя hello_world:
В аккорде B можно не зажимать 2-ю струну, всё равно эта нота не играется.
 
 
Свернуть Распечатать

Видео