Juanes - La camisa negra, аккорды

Прокрутка
Тональность
Шрифт
100
     F#m             C#7              F#m          C#7  
e|-----2--2----|--------2-2--|-----2--2---|-------------| 
B|-----2--2----|--------2-2--|-----2--2---|-------------| 
G|-----2--2----|--------2-2--|-----2--2---|-------------| 
D|-------------|---2-3-4-----|------------|---2-3-------| 
A|-------------|--4-4-4------|------------|--4-4--------| 
E|--2----------|-------------|---2--------|-------------| 
 
       F#m                          C#7             F#m    C#7  
e|-------|--------|-------|-------|-------|-------------| 
B|-------|--------|-------|-----0-|-----0-|-----0-------| 
G|-1/2-2-|-1/2-2--|-1/2-2-|-2/4-4-|-2/4-4-|-2/4-4-5/6-6-| 
D|-3/4-3-|-3/4-3--|-3/4-4-|-4/6-6-|-4/6-6-|-4/6-6-6/7-7-| 
A|-------|--------|-------|-------|-------|-----------0-| 
E|-------|--------|-------|-------|-------|-------------| 
 
       F#m                                     Bm      C#7  
e|-------|--------|-----|-------------------------------| 
B|-------|--------|-----|-------------------------------| 
G|-5/6-6-|-5/6-6--|-7-7-|-9--11-9--7-6-4-2/-------------| 
D|-6/7-7-|-6/7-7--|-9-9-|-11-12-11-9-7-6-4/-------------| 
A|-----0-|-----0--|-----|-------------------------------| 
E|-------|--------|-----|-------------------------------| 
 
    F#m                  C#7  
e|---------|--------|--------|--------------------------| 
B|-----2-2-|----2---|--------|--------------------------| 
G|--2-2----|--2-2-2-|--2-2/4-|--4-4-7-7--4-7-7-4/6------| 
D|-4-4-----|-4------|-4--4/6-|-6-6------6-7---7-/7------| 
A|---------|--------|--------|--------------------------| 
E|---------|--------|--------|--------------------------| 
 
    F#m                       Bm              C#7      F#m  
e|---------|--------|------------|----------------------| 
B|-----2-2-|----2---|------------|----------------------| 
G|--2-2----|--2-2-2-|--2-2-4-4-4-|-6-6h7-6-4h7h4--------| 
D|-4-4-----|-4------|-4-4--------|--------------7-6-4---| 
A|---------|--------|------------|----------------------| 
E|---------|--------|------------|----------------------| 
 
     F#m  
e|----------|-----------| 
B|--2-------|--2--------| 
G|---2-2----|---2-2--2--| 
D|----4-4-4-|----4-4-4--| 
A|-------4--|-------4---| 
E|----------|-----------| 
 
 F#m               C#7  
Tengo la camisa negra 
                     F#m  
hoy mi amor está de luto 
                          Bm  
hoy tengo en el alma una pena 
             C#7            F#m  
y es por culpa de tu embrujo 
 F#m                          C#7  
pues sé que tu ya no me quieres 
                          F#m  
y eso es lo que mas me hiere 
                       Bm  
que tengo la camisa negra 
        C#7           F#m  
y una pena que me duele 
 
 F#m                      C#7  
tal parece que solo me quede 
                         F#m  
y fue pura todita tu mentira 
                            Bm  
que maldita mala suerte la mía 
           C#7            F#  
que aquel día te encontré 
 
 F#        G#m        A#m  
Por beber del veneno 
  B               F#  
malévolo de tu amor 
    G#m       A#m  
yo quede  moribundo 
   B            F#  
y lleno de dolor 
      G#m          A#m  
respiré  de ese humo 
  B              F#  
amargo de tu adiós 
         G#m         A#m       B  
y desde que tu te fuiste yo solo 

Coro:  
 F#m                        C#7  
Tengo, tengo la camisa negra 
                        F#m  
Porque negra tengo el alma 
                      Bm  
Yo por ti perdí la calma 
         C#7              F#m  
Y casi pierdo hasta mi cama 
 F#m                       C#7  
Cama, cama cama, c’mon, baby 

                  F#m  
te digo con disimulo 
                      Bm  
que tengo la camisa negra 
           C#7         F#m  
y debajo tengo el difunto 

    F#m                          C#7             F#m    C#7  
e|-------|--------|-------|-------|-------|-------------| 
B|-------|--------|-------|-----0-|-----0-|-----0-------| 
G|-1/2-2-|-1/2-2--|-1/2-2-|-2/4-4-|-2/4-4-|-2/4-4-5/6-6-| 
D|-3/4-3-|-3/4-3--|-3/4-4-|-4/6-6-|-4/6-6-|-4/6-6-6/7-7-| 
A|-------|--------|-------|-------|-------|-----------0-| 
E|-------|--------|-------|-------|-------|-------------| 
 
       F#m                                     Bm       C#7  
e|-------|--------|-----|-------------------------------| 
B|-------|--------|-----|-------------------------------| 
G|-5/6-6-|-5/6-6--|-7-7-|-9--11-9--7-6-4-2/-------------| 
D|-6/7-7-|-6/7-7--|-9-9-|-11-12-11-9-7-6-4/-------------| 
A|-----0-|-----0--|-----|-------------------------------| 
E|-------|--------|-----|-------------------------------| 
 
    F#m                  C#7  
e|---------|--------|--------|--------------------------| 
B|-----2-2-|----2---|--------|--------------------------| 
G|--2-2----|--2-2-2-|--2-2/4-|--4-4-7-7--4-7-7-4/6------| 
D|-4-4-----|-4------|-4--4/6-|-6-6------6-7---7-/7------| 
A|---------|--------|--------|--------------------------| 
E|---------|--------|--------|--------------------------| 
 
    F#m                       Bm              C#7      F#m  
e|---------|--------|------------|----------------------| 
B|-----2-2-|----2---|------------|----------------------| 
G|--2-2----|--2-2-2-|--2-2-4-4-4-|-6-6h7-6-4h7h4--------| 
D|-4-4-----|-4------|-4-4--------|--------------7-6-4---| 
A|---------|--------|------------|----------------------| 
E|---------|--------|------------|----------------------| 
 
     F#m  
e|----------|-----------| 
B|--2-------|--2--------| 
G|---2-2----|---2-2--2--| 
D|----4-4-4-|----4-4-4--| 
A|-------4--|-------4---| 
E|----------|-----------| 
 
 F#m                C#7  
Tengo la camisa negra 
                      F#m  
ya tu amor no me interesa 
                         Bm  
lo que ayer me supo a gloria 
       C#7  
hoy me sabe a pura 
 F#m  
miércoles por la tarde 
               C#7  
y tu que no llegas 
                      F#m  
ni siquiera muestras señas 
                      Bm  
y yo con la camisa negra 
         C#7             F#m  
y tus maletas en la puerta 
 
 F#m                        C#7  
tal parece que solo me quede 
                         F#m  
y fue pura todita tu mentira 
                            Bm  
que maldita mala suerte la mía 
           C#7            F#m  
que aquel día te encontré 

 F#        G#m        A#m  
Por beber del veneno 
  B               F#  
malévolo de tu amor 
    G#m       A#m  
yo quede  moribundo 
   B            F#  
y lleno de dolor 
      G#m          A#m  
respiré  de ese humo 
  B              F#  
amargo de tu adiós 
         G#m         A#m        B  
y desde que tu te fuiste yo solo 
 
Coro: 
 F#m                        C#7  
Tengo, tengo la camisa negra 
                        F#m  
Porque negra tengo el alma 
                      Bm  
Yo por ti perdí la calma 
         C#7              F#m  
Y casi pierdo hasta mi cama 
 F#m                       C#7  
Cama, cama cama, c’mon, baby
 
                  F#m  
te digo con disimulo 
 
                      Bm  
que tengo la camisa negra 
           C#7         F#m  
y debajo tengo el difunto 
 
 F#m                        C#7  
Tengo, tengo la camisa negra 
                        F#m  
Porque negra tengo el alma 
                      Bm  
Yo por ti perdí la calma 
         C#7              F#m  
Y casi pierdo hasta mi cama 
 F#m                       C#7  
Cama, cama cama, c’mon, baby 
                  F#m  
te digo con disimulo 
 
                      Bm  
que tengo la camisa negra 
           C#7         F#m  
y debajo tengo el difunto. 
 
 

Видео