Juanes - Me Enamora, аккорды

Прокрутка
Тональность
Шрифт
100
E||-------------------------------|-------------------------------|
B||------5---5---5----------------|--------5---5---5--------------|
G||----4---4---7------4----4------|------4---4---7------4----4----|
D||-----------------7----5--------|-------------------7----5------|
A||---------------------------7---|--7--------------------------7-|
E||-------------------------------|-------------------------------|



---------------------------------|---------------------------|
----------------5----------------|---------------------------|
------------4-7---7---4----------|---------------------------|
--------5-7-------------7-5------|---------------------------|
--7---7----------------------7---|--7--5--7-----5------------|
---------------------------------|--0--0--0--7----5--5-0-0---|

Em
Cada blanco de mi mente
Se vuelve color con verte
Y el deseo de tenerte
G              A
Es mбs fuerte, es mбs fuerte
Em
Sуlо quiero que me lleves

De tu mano por la senda

Y atravesar el bosque
G           A
Que divide nuestras vidas
C           G           Am            C D
Hay tantas cosas que me gustan hoy de ti…

Припев:
      G
Me enamora que me hables con tu boca
     D
Me enamora que me eleves hasta el cielo
     C                              G
Me enamora que de mi sea tu alma sосаdоrа
     G    D7     Em
Esperanza de mis ojos
                           D
Sin ti mi vida no tiene sentido
                              C
Sin ti mi vida es como un remolino
                   D           C
De cenizas que se van oh oh oh oh
                     D
Volando con el viento…

Проигрыш

Yo no sй si te merezco
Sуlо sй que аъn deseo
Que le des luz a mi vida
En los dнаs venideros
Lйеmе muy bien los labios
Te lo digo bien despacio
Por el resto de mis dнаs
Quiero ser tu соmрасна
Hay tantas cosas que me gustan hoy de ti…

Припев
 
 
Свернуть Распечатать

Аппликатуры аккордов

Аккорд EmАккорд GАккорд AАккорд CАккорд AmАккорд DАккорд D7
HaulHaul
автор подбора аккордов
1,490 0 18.08.2011