Kanye West - Through The Wire, аккорды

Прокрутка
Тональность
Шрифт
100
e|----------------------12-10--------------13-13-13-13-13-12-12--12-13-13---|
B|-10-12-13-10--10-12-13-------13-12-10-------------------------------------|
G|-------------------------------------12-----------------------------------|
D|--------------------------------------------------------------------------|
A|--------------------------------------------------------------------------|
E|--------------------------------------------------------------------------|

(continued)
e|-15-12-12-10--------------------------------------------------------------|
B|--------------------------------------------------------------------------|
G|--------------------------------------------------------------------------|
D|--------------------------------------------------------------------------|
A|--------------------------------------------------------------------------|
E|--------------------------------------------------------------------------|

this is the chorus (repeats through entire song)
 
 
Свернуть Распечатать

Видео