Kanye West - Flashing Lights, аккорды

Прокрутка
Тональность
Шрифт
100
Standard Tuning (E A D G B E)

Intrо:
|-4-4-4-4-4-4-2-2-----------------4-4-5-5-4-4-2-2-----------|
|-----------------2-2-2-2-2-2-2-2-----------------2-2-2-2-2-|
|-----------------------------------------------------------|
|-4-4-4-4-4-4-4-4-0-0-0-0-0-0-0-0-4-4-4-4-4-4-4-4-0-0-0-0-0-|
|-----------------------------------------------------------|
|-----------------------------------------------------------|

|---------------------------------2-2-2-5-7-9----|
|------------------------------------------------|
|-2-2-2-2-2-2-2-2-2-4-4-4-4-4-4-4----------------|
|-0-0-0-0-0-0-0-0-0-4-4-4-4-4-4-4----------------|
|------------------------------------------------|
|------------------------------------------------|

 Verse/Сhоrus:                        (X2)
||--4------2---4--5-4-2------5-5-5-5-5-7-7-7-7-9-9-9--||
||о--------------------------7-7-7-7-7-7-7-7-7-7-7-7-о||
||---------------------------7-7-7-7-7-7-7-7-7-7-7-7--||
||--4------4---4--4-4-4-------------------------------||
||о--------------------------------------------------о||
||----------------------------------------------------||
 
 
Свернуть Распечатать

Видео