Katatonia - I Break, аккорды

Прокрутка
Тональность
Шрифт
100
Guitar 1
Electric
Riff 1
|-----------------------------------------------------------------|
|-----------------------------------------------------------------|
|-----------------------------------------------------------------|
|-2-2-2-2-2-2-2-4-4-4-4-4-4-4-4-4-4-4-4-4-4-4-4-5-5-5-5-----------|
|-------------------------------------------------------5-5-5-5-5-|
|-----------------------------------------------------------------|

|-----------------------------------------------------------------|
|-----------------------------------------------------------------|
|---------------------------------5-5-5-5-5-5-5-------------------|
|-2-2-2-2-2-2-2-4-4-4-4-4-4-4-4-4---------------4-4-4-4-4-4-4-4-4-|
|-----------------------------------------------------------------|
|-----------------------------------------------------------------|

Riff 2
|---------------7-9-5~~-|
|--------4~~----4-5-2~~-|
|-----------------------|
|-6~~-------------------|
|-----------------------|
|-----------------------|

Chorus
|-----------------------------------------------------------------|
|-----------------------------------------------------------------|
|---------------------------------7-7-7-----------5-5-5-----------|
|-9-9-9-9-9-9-9-9-5-5-5-5-5-5-5-5-5-5-5-9-9-9-9-9-3-3-3-9-9-9-9-9-|
|-7-7-7-7-7-7-7-7-3-3-3-3-3-3-3-3-------7-7-7-7-7-------7-7-7-7-7-|
|-----------------------------------------------------------------|

Riff 3
|-7-7-7-10-10--9--9-5-5-7-7-7-7-7-7-7-7-7-7-7-7-7-7-7-7-7-7-7-7-7-7-7-|
|-8-8-8-12-12-10-10-7-7-8-8-7-7-8-8-7-7-7-7-7-7-7-7-8-8-8-8-8-8-8-8-8-|
|---------------------------------------------------------------------|
|---------------------------------------------------------------------|
|---------------------------------------------------------------------|
|---------------------------------------------------------------------|

Acoustic
Bridge 2
|--------------------0--------|
|-----0------------1----------|
|----------------4------------|
|---2----------0--------------|
|-----------------------------|
|-0---------------------------|

Guitar 2
Electric
Riff 1
|---------------------------------------------------------------|
|---------------------------------------------------------------|
|---------------------------------------------------------------|
|-2-2-2-2-2-2-2-2-2-2-2-2-2-2-2-5-7-7-7-7-7-7-7-5-5-5-5-7-7-7-7-|
|-2-2-2-2-2-2-2-2-2-2-2-2-2-2-2-5-7-7-7-7-7-7-7-5-5-5-5-7-7-7-7-|
|-0-0-0-0-0-0-0-0-0-0-0-0-0-0-0-3-5-5-5-5-5-5-5-3-3-3-3-5-5-5-5-|

Riff 2 
|--------------------------------------------|
|--------------------------------------------|
|-6--6------6-6--6-6-------------------------|
|-6--6------6-6--6-6-------------------------|
|-4--4------4-4--4-4--4-4-4-5-5-2-2-4--4-4-4-|
|-4--4------4-4--4-4--2-2-2-2-2-2-2-2--2-2-2-|

Bridge 1
|---------------------------------|
|---------------------------------|
|-9-9-9-9-9-9-9-9-9-9-9-9-9-4-4-5-|
|-9-9-9-9-9-9-9-9-9-9-9-9-9-4-4-5-|
|-7-7-7-7-7-7-7-7-7-7-7-7-7-2-2-3-|
|---------------------------------|

Riff 3
|-----------------------------------------------------------------|
|-----------------------------------------------------------------|
|---------------------------------9-9-9-9-9-9-9-9-9-9-9-9-9-4-4-5-|
|-2-2-2-2-2-2-2-2-2-2-2-2-2-2-2-2-9-9-9-9-9-9-9-9-9-9-9-9-9-4-4-5-|
|-2-2-2-2-2-2-2-2-2-2-2-2-2-2-2-2-7-7-7-7-7-7-7-7-7-7-7-7-7-2-2-3-|
|-0-0-0-0-0-0-0-0-0-0-0-0-0-0-0-0---------------------------------|

Комментарий автора:

..  - palm mute          
/  - slide up to
 ~  - vibrato
 h  - hammer on          
b  - bend
p  - pull off            
ph - pinch harmonic
f - full bend    
h - half bend
r - release      
t - tap bend
X  - percussion mute      
 ~ - vibrato bend
@  - slight palm mute     
() - ghost note, sustained note
 
 
Свернуть Распечатать

Видео