Кис-кис - Мелочь, аккорды

Прокрутка
Тональность
Шрифт
100
Вступление: играются первые два куплета и два куплета после первого припева

C#m      B       A       
E|-------------------------
H|-------------------------
G|-----6-------4-------2---
D|---6---6---4---4---2---2-
A|-4-------2-------0-------     
E|------------------------- - 2 раза

[Куплет 1]
C#m       B         A           
Ночь у подъезда, музыка детства                      
B
Давай не будем взрослеть
C#m     B          A   
Мятая пачка, вкус от жвачки
B               
Я могу вечно смотреть
C#m         B       A     
Как ты куришь одну за одной
B
Тлеет на губах сигарета
C#m       B     A    
И кажется мы целое одно
B
Мне совсем не вериться в это

[Перед-припевом 1]
F#m
Снова пропал, которые сутки
A
Мне не уснуть, проклятые мутки
C#m
Предки звонят всё время на трубки
B
Я перестала писать тебе

[Припев]
F#m                         A
Мелочь в кармане, значит все в порядке
                 C#m  
На телефоне есть зарядка
                  B
А мы в метро играем в прятки, всё по кругу

F#m                        A
Мелочь, внутри людей так много желчи
                 C#m  
Проходит время, но не лечит
                 B
Мы так же избегаем встречи, друг без друга

[Куплет 2]
C#m         B
Что делать дальше?
A
Прыгну в ближайший
B
И на конечной сойти
C#m         B
Так будет лучше
A
Снова пропущенный
B
Ты меня не сможешь найти
C#m     B        A
Я переберу каждый момент
A
Каждое мне обещание
C#m      B          A
Верила тебе, а что взамен?
A
Отпустила, я прощаю

[Перед-припевом 2]
F#m
Ложь от того, что ещё малая
A
Сложно всё, я о многом не знаю
C#m
Снова жду, ты по новой сливаешь
B
Я так устала писать тебе

[Припев]
F#m                         A
Мелочь в кармане, значит все в порядке
                 C#m  
На телефоне есть зарядка
                  B
А мы в метро играем в прятки, всё по кругу

F#m                        A
Мелочь, внутри людей так много желчи
                 C#m  
Проходит время, но не лечит
                 B
Мы так же избегаем встречи, друг без друга

[Переход]
A         F#m  C#m  B
Мелочь
B         A  F#m   C#m  B
Всё по кругу

Соло:
E|-----------------------------------
H|---------------------------9-------
G|-9~11---11-9-11-9-11----9----  x3   G|-8-8-9
D|-----------------------------11----
A|----------------------------------- 
E|-----------------------------------


E|-----------------------------------
H|---------------------------9-------
G|-9~11---11-9-11-9-11----9-----  x3  G|-8-9-11-13-16
D|-----------------------------11----
A|----------------------------------- 
E|-----------------------------------

[Перед-припевом 3]
F#m                         A
Мелочь в кармане, значит все в порядке
                 C#m  
На телефоне есть зарядка
                  B
А мы в метро играем в прятки, всё по кругу

F#m                        A
Мелочь, внутри людей так много желчи
                 C#m  
Проходит время, но не лечит
                 B
Мы так же избегаем встречи, друг без друга

[Переход]

A         F#m  C#m  B
Мелочь
B         A  F#m   C#m  B
Всё по кругу
F#m
Мелочь

Соло:
E|-----------------------------------
H|---------------------------9-------
G|-9~11---11-9-11-9-11----9----   x3  G|-8-8-9-
D|-----------------------------11----
A|-----------------------------------
E|-----------------------------------


E|-----------------------------------
H|---------------------------9-------
G|-9~11---11-9-11-9-11----9----|  x3  G|-8-9-11-13-16|
D|-----------------------------11----
A|----------------------------------- 
E|-----------------------------------

[Припев]  
F#m                         A
Мелочь в кармане, значит все в порядке
                 C#m  
На телефоне есть зарядка
                  B
А мы в метро играем в прятки, всё по кругу

F#m                        A
Мелочь, внутри людей так много желчи
                 C#m  
Проходит время, но не лечит
                 B
Мы так же избегаем встречи, друг без друга 

A F#m C#m B 

[Припев] 
F#m                         A
Мелочь в кармане, значит все в порядке
                 C#m  
На телефоне есть зарядка
                  B
А мы в метро играем в прятки, всё по кругу

F#m                        A
Мелочь, внутри людей так много желчи
                 C#m  
Проходит время, но не лечит
                 B
Мы так же избегаем встречи, друг без друга

Комментарий автора:

Бой восьмерка, играется квинтами или с капо на четвёртом ладу, тональность ставим -4

для удобства ставится капо на 4 лад.
Куплеты am, g, f. припев dm, f, am, g
 
 
Свернуть Распечатать

Видео