Lizer - Корабли, аккорды

Прокрутка
Тональность
Шрифт
100
e--------8-----0-----------3--------------------1-3-0--
B--------5-----1-----1-----1-----3-----1---------------
G--5-----5-----0-----0-----0-----0-----0-----2---------
D------------------------------------------------------
A--0--0--0--0--3--3--3--3------------------------------
E--------------------------3--3--3--3--3--3------------

[Интро]
Е-е

[Припев]
Am                    C 
Наш корабль идёт ко дну
                  G 
Помоги мне, я утону
                    G
Протяни мне свою ладонь

Наш корабль идёт ко дну
Am                    C 
Наш корабль идёт ко дну
                  G 
Помоги мне, я утону
                    G
Протяни мне свою ладонь

Наш корабль идёт ко дну

[Куплет 1]
Am
Я не сплю день и ночь, но ты не придёшь
C
Даже если улыбнусь — внутри дождь
G
Убегаешь от меня в темноту прочь
G                                  Am
Наш корабль ко дну, ты меня не спасёшь
C
Вдох-выдох, вдох-выдох
G
Что-то поменять мы с тобою не в силах
G                                 Am C
Авторы судьбы не укажут нас в титрах

e----------1-3-------------------------------------1-3-0--
B--------------3--3-----1-----3-----------1---------------
G-----------------0-----0-----2-----2-----0-----2---------
D-----------------------------0--0--0--0------------------
A--0--0--0--------3--3--3--3------------------------------
E-----------------------------------------3--3------------

[Припев]
Am                    C 
Наш корабль идёт ко дну
                  G 
Помоги мне, я утону
                    G
Протяни мне свою ладонь

Наш корабль идёт ко дну
Am                    C 
Наш корабль идёт ко дну
                  G 
Помоги мне, я утону
                    G
Протяни мне свою ладонь

Наш корабль идёт ко дну

[Куплет 2]
Am                           C
Слёзы водопадом, кажется, я падал
                              G
Ищем виноватых, знаешь, это правда
                               G
Если я один, даже если кто-то рядом

Я хочу обратно к тебе
Am
Мой тёмный город не спит
C
Я хочу обратно к тебе
G
Мой тёмный город внутри
G                       Am
Это будет никогда и нигде

[Бридж]
Am     C       D5         G        Am
А-а, а-а, а-а-а-а, а-а, а-а, а-а-а-а

[Припев]
Am                    C 
Наш корабль идёт ко дну
                  G 
Помоги мне, я утону
                    G
Протяни мне свою ладонь

Наш корабль идёт ко дну
Am                    C 
Наш корабль идёт ко дну
                  G 
Помоги мне, я утону
                    G
Протяни мне свою ладонь
                      Am
Наш корабль идёт ко дну

e--------8-----0-----------3--------------------1-3-0--
B--------5-----1-----1-----1-----3-----1---------------
G--5-----5-----0-----0-----0-----0-----0-----2---------
D------------------------------------------------------
A--0--0--0--0--3--3--3--3------------------------------
E--------------------------3--3--3--3--3--3------------
 
 
Свернуть Распечатать

Видео