Local H - User, аккорды

Прокрутка
Тональность
Шрифт
100
Drop-D Tuning

/ = Slide
h = Hammer on
p = pull

Main Riff

e|-------------------------------|
b|-------------------------------| Just keep repeating until
g|-------------------------------|
d|-0--6-5--3-5-3--0--6-5--3-5-3--|
a|-0--6-5--3-5-3--0--6-5--3-5-3--|
D|-0--6-5--3-5-3--0--6-5--3-5-3--|

end verse into chorus

e|------------------------------------------------|
b|------------------------------------------------| Repeat as many
g|------------------------------------------------| times as necessary
d|-0--6-5--3-5-3--0--6-5-3-5//3-3333333355556666--|
a|-0--6-5--3-5-3--0--6-5-3-5//3-3333333355556666--|
D|-0--6-5--3-5-3--0--6-5-3-5//3-3333333355556666--|

solo

e|----16-15--13-15b-15-13-----|
b|-15-------------------------| Just keep on repeating until chorus
g|----------------------------| comes in again.
d|----------------------------|
a|----------------------------|
D|----------------------------|
 
 

Видео