Los Lobos - Disperado (на русском), аккорды новинка

Прокрутка
Тональность
Шрифт
100
Intro:
------7-7-7-7-8-7-7-7-8-7-7--------|-----5-5-5-5-7-5-5-5-7-5-5----|
-----8-8-8-8-8-8-8-8-8-8-8-8-8-10--|----7-7-7-7-7-7-7-7-7-7-7-7-8-|
---9-------------------------9-11--|---7----------------------8-9-|
-9---------------------------------|-7----------------------------|
-----------------------------------|------------------------------|
-----------------------------------|------------------------------|
                                     B                         Em
Verse 1:
Em                                        B
Я парнишка – то что надо, и живу я без забот,
                                            Em
Мне всегда девчонки рады, Потому что я не жмот.

Verse 2:
Em                                     B
...На лошадке грациозной Вечно шляюсь где-нибудь,
                                        Em
Только солнце или звёзды Мне указывают путь

Chrous:
Am        Em
Ай ай ай ай 
B         Em
Ай, хорошо! 
Am         Em
Ай ай красотка 
B          Em
Танцуй же ещё!

------7-7-7-7-8-7-7-7-8-7-7--------|-----5-5-5-5-7-5-5-5-7-5-5----|
-----8-8-8-8-8-8-8-8-8-8-8-8-8-10--|----7-7-7-7-7-7-7-7-7-7-7-7-8-|
---9-------------------------9-11--|---7----------------------8-9-|
-9---------------------------------|-7----------------------------|
-----------------------------------|------------------------------|
-----------------------------------|------------------------------|
                                     B                         Em

Verse 3:
Em                                      B
Люблю я свою гитару, И петь под неё люблю, 
                                          Em
Подпевают хлопцы с жаром Если что-нибудь пою

Verse 4:
Em                                        B
Водка мне умножит силы И печалей снимет груз, 
                                   Em
А ещё люблю текилу За её солёный вкус

Chrous:
Am         Em
Ай ай ай ай 
B          Em
Ай, хорошо! 
Am         Em
Ай ай красотка 
B          Em
Танцуй же ещё!

Solo: Em - B - Em - B - Em - B - Em - B - Em - B - Em         
 
 
Свернуть Распечатать

Видео