Lynyrd Skynyrd - Sweet Home Alabama, аккорды

Прокрутка
Тональность
Шрифт
100
Intro: 
------------------------------------------------- 
-------3---------3----------3-------------------- 
---------2---------0--------0---------------2p0-- 
-0-0------------------------0--0----0h2p0-------- 
------------3-3-------------2---0p2-------0------ 
-----------------------3-3--3-------------------- 
 
----------------------------------------------------- 
------3-----------3----------3----------------------- 
--------2-----------0--------0----0-2p0-0-4p0-0-5^7-- 
-0-0-------------------------0----------------------- 
-----------3-3---------------2----------------------- 
------------------------3-3--3----------------------- 
 
------------------------------------------------- 
-------3---------3----------3-------------------- 
---------2---------0--------0---------------2p0-- 
-0-0------------------------0--0----0h2p0-------- 
------------3-3-------------2---0p2-------0------ 
-----------------------3-3--3-------------------- 
 
----------------------------------------------------- 
------3-----------3----------3----------------------- 
--------2-----------0--------0----------0------------ 
-0-0-------------------------0----------------------- 
-----------3-3---------------2----0h1/2-------------- 
------------------------3-3--3----------------------- 

 D    C             G 
Big wheels keep on turning 
 D        C              G 
Carry me home to see my kin 
 D        C               G
Singing songs about the Southland 
 D      C            G   
I miss ole bamy once again 
 G
And I think its a sin, yes 
 
 D    C             G 
Well I heard mister Young sing about her 
 D    C             G 
Well, I heard ole Neil put her down 
 D    C             G 
Well, I hope Neil Young will remember 
 D    C             G 
А Southern man don't need him around anyhow 
 
Chorus:
 D      C      G 
Sweet home Alabama 
 D          C           G
Where the skies are so blue 
 D     C        G
Sweet Home Alabama 
 D         C              G
Lord, I'm coming home to you 
 
 D    C             G 
In Birmingham they love the governor 
 D    C             G 
Now we all did what we could do 
 D    C             G 
Now Watergate does not bother me 
 D    C             G 
Does your conscience bother you? 
 G
Tell the truth 
 
Chorus:
 D      C      G 
Sweet home Alabama 
 D          C           G
Where the skies are so blue 
 D     C        G
Sweet Home Alabama 
 D         C              G
Lord, I'm coming home to you 
 G
Here I come Alabama 
 
 D      C G 
Ah ah ah 
 D      C      G 
Alabama, ah ah ah 
 D      C      G 
Alabama, ah ah ah 
 D      C      G 
Alabama, ah ah ah 
G
Alabama 
 
 D      C      G 
Now Muscle Shoals has got the Swappers 
 D      C      G 
And they've been known to pick a song or two 
 D      C      G 
Lord they get me off so much 
 D      C      G 
They pick me up when I'm feeling blue 
 
Now how about you? 
 
Chorus:
 D      C      G 
Sweet home Alabama 
 D          C           G
Where the skies are so blue 
 D     C        G
Sweet Home Alabama 
 D         C              G
Lord, I'm coming home to you 
 
 D      C      G 
Sweet home Alabama 
 D      C      G 
Oh sweet home baby 
 D      C      G 
Where the skies are so blue 
 D      C      G 
And the governor's true 
 D      C      G 
Sweet Home Alabama 
 D      C      G 
Lordy, Lord, I'm coming home to you 
 
 

Видео