Марина Журавлева - Забудь меня, забудь, аккорды

Прокрутка
Тональность
Шрифт
100
Вступление Cm Gm D7 Gm

e|-6-5-3-|-6-5----6-5-3-|-6-5------------|-5-5-5--------|-6-6-6-6-|
B|-------|-----4--------|-----3-3--3-3-3-|--------3-3-3-|---------|
G|-------|--------------|----------------|--------------|---------|
D|-------|--------------|----------------|--------------|---------|
A|-------|--------------|----------------|--------------|---------|
E|-------|--------------|----------------|--------------|---------|

      D7                   Gm
Оборвалась струна от сильного удара,
      D7               Gm
Такая тишина, молчит моя гитара,
           Cm               Gm
Не пой мне соловей, не разрывай мне душу,
       A                 D7
Уйду я поскорей, тебя не буду слушать.

           Cm                      Gm
  Забудь меня, забудь, прощальных слёз не надо,
            D7                 Gm
  Любовь не обмануть, она ведь не забава!
        Cm                  Gm
  Погашена звезда, конец твоим обманам,
            A               D7
  Уж больше никогда любимой я не стану.

           D7                 Gm
Не встретимся с тобой у той холодной речки,
        D7                 Gm
Не проведёшь домой, до самого крылечка,
          Cm                Gm
Теперь уж не найти ко мне тебе дороги,
       A                D7
Закончились мои надежды и тревоги.

           Cm                      Gm
  Забудь меня, забудь, прощальных слёз не надо,
            D7                 Gm
  Любовь не обмануть, она ведь не забава!
        Cm                  Gm
  Погашена звезда, конец твоим обманам,
            A               D7
  Уж больше никогда любимой я не стану.

Проигрыш D7 Gm D7 Gm Cm Gm A D7

e|-------|---2-2----------|---3-3----------|---2-2----5-5-6-|-5-3-6-6-|-6-6-8-|
B|-3-3-3-|-3-----3--3-3-3-|-3-----3--3-3-3-|-3-----3--------|---------|-------|
G|-------|----------------|----------------|----------------|---------|-------|
D|-------|----------------|----------------|----------------|---------|-------|
A|-------|----------------|----------------|----------------|---------|-------|
E|-------|----------------|----------------|----------------|---------|-------|

e|-6-6-8-|-6-5-8-|-5-5-6-|-5-3-6-6-|-------|-5-5-5-|-3-2-3-|-6-5-6-5-|
B|-------|-------|-------|---------|-3-3-3-|-------|-------|---------|
G|-------|-------|-------|---------|-------|-------|-------|---------|
D|-------|-------|-------|---------|-------|-------|-------|---------|
A|-------|-------|-------|---------|-------|-------|-------|---------|
E|-------|-------|-------|---------|-------|-------|-------|---------|

           Cm                      Gm
  Забудь меня, забудь, прощальных слёз не надо,
            D7                 Gm
  Любовь не обмануть, она ведь не забава!
        Cm                  Gm
  Погашена звезда, конец твоим обманам,
            A               D7
  Уж больше никогда любимой я не стану.

Проигрыш Cm Gm D7 Gm

        Cm                  Gm
  Погашена звезда, конец твоим обманам,
            A               D7
  Уж больше никогда любимой я не стану.
 
 
Свернуть Распечатать

Аппликатуры аккордов

Аккорд CmАккорд GmАккорд D7Аккорд A
ivan30ivan30
автор подбора аккордов
663 0 07.07.2021

Видео