mxmtoon - Feelings Are Fatal, аккорды

Прокрутка
Тональность
Шрифт
100
[Вступление]
   Am                D                 G                 G7
e|-5-----5-----5---|-7-----7-----7---|-8-----8-----8---|-6-----6-----6---|
B|---6-----6-------|---8-----8-------|---5-----5-------|---5-----5-------|
G|-----7-----7-----|-----7-----7-----|-----5-----5-----|-----5-----5-----|
D|-----------------|-----------------|-----------------|-----------------|
A|-----------------|-----------------|-----------------|-----------------|
E|-----------------|-----------------|-----------------|-----------------|
 
   Am                D                 G                 G7
e|-5-----5-----5---|-7-----7-----7---|-8-----8-----8---|-6---------------|
B|---6-----6-------|---8-----8-------|---5-----5-------|-8---------------|
G|-----7-----7-----|-----7-----7-----|-----5-----5-----|-----------------|
D|-----------------|-----------------|-----------------|-----------------|
A|-----------------|-----------------|-----------------|-----------------|
E|-----------------|-----------------|-----------------|-----------------|
 
Куплет 1
Am             D
  I'm happy for you
               G
I'm smiling for you
       G7
I'd do anything
             Am
For you, for you
            D
It's always for you
              G
And never for me
                 G7
and I need it to stop
                    Am
So let me tell you, please
 
Припев
           D
I'm always sad
                 G
And I'm always lonely
           G7
But I can't tell you
                  Am
That I'm breaking slowly
        D
Closed doors
             G
Locked in, no keys
                  G7
Keeping my feelings hidden
            Am
There is no ease
             D
I need it to stop
                G
And I want to be able
            G7
To open up but,
                 Am
My feelings are fatal
D                    G
  (My feelings are fatal)
 
Куплет 2
Am          D
   How many times
                 G
Must I keep it inside
             G7
I need to let go
                       Am
And I swear that I've tried
            D
But opening up
                 G
Means trusting others
                  G7
And that's just too much,
                 Am
I don't want to bother
                D
So I'll keep it inside
                 G
And I'll bury it deep
               G7
I know it's not healthy
                     Am
But you won't hear a peep
 
Припев
                  D
Though I'm always sad
                 G
And I'm always lonely
             G7
I could never tell you
                  Am
That I'm breaking slowly
        D
Closed doors
             G
Locked in, no keys
                  G7
Keeping my feelings hidden
            Am
There is no ease
              D
I need it to stop
                G
And I want to be able
            G7
To open up but,
                 Am
My feelings are fatal
D                    G
  (My feelings are fatal)

Комментарий автора:

Капо на пятом ладу, первый куплет и припев играются перебором как во вступлении, второй куплет и припев — боем шестёркой.
 
 
Свернуть Распечатать

Видео