Немного Нервно - Приходи, аккорды

Прокрутка
Тональность
Шрифт
100
Куплет:
e|-----------1--------------------------------------------------
B|------------------0^1-----------------------------------------
G|--------------------------------------------------------------
D|---------------------------------2------------------------3---
A|-0-0-------------------------0-----0----------3---2---------2-
E|--------------------------------------------------------------

Приходи голодным и усталым зверем 
Приходи, я научу тебя пить 
Из горсти вино стаканами мерить время 
Чудес никогда не закончится здесь 

Припев:
Аm 
Мой дом 
Dm                               Am 
Просторен под самым-самым синим небом 
Am
И в нем 
Dm 
Вечное лето, море 
Аm
И юные мы 
Dm                            Am 
Никогда не случится ядерной войны 
Am
И зимы 
Dm 
И твоих разбитых надежд 

Куплет:
e|-----------1--------------------------------------------------
B|------------------0^1-----------------------------------------
G|--------------------------------------------------------------
D|---------------------------------2------------------------3---
A|-0-0-------------------------0-----0----------3---2---------2-
E|--------------------------------------------------------------

Приходи, когда ты ранен в самое сердце 
Приходи, я научу тебя вдыхать свет 
От свечи по стенам пляшут славные сладкие тени 
И мы звучим.

Припев:
Аm 
Мой дом 
Dm                               Am 
Просторен под самым-самым синим небом 
Am
И в нем 
Dm 
Вечное лето, море 
Аm
И юные мы 
Dm                            Am 
Никогда не случится ядерной войны 
Am
И зимы 
Dm 
И моих ненужных людей 

Куплет:
e|-----------1--------------------------------------------------
B|------------------0^1-----------------------------------------
G|--------------------------------------------------------------
D|---------------------------------2------------------------3---
A|-0-0-------------------------0-----0----------3---2---------2-
E|--------------------------------------------------------------

Приходи голодным и усталым зверем 
Приходи, когда ты ранен в самое сердце 
Приходи, когда зима застанет тебя 
В пути, приходи, приходи, приходи.
 
 
Свернуть Распечатать

Видео