Немного Нервно - Быстрее пуль, аккорды

Прокрутка
Тональность
Шрифт
100
Каподастр на 2 ладу.

Проигрыш:
B---------2---------5---2~3-
G------4-------------------- x4
D----4----------4-----------
A--2----------4-------------

Am E Am
Здравствуй. Февраль не пришел один.
E Am  Bm7-5 Bm7-5 * E
Снова болит в груди, и не берет огонь
Am E Am
Письма тяжелые, как гранит,
E Am  Bm7-5 Bm7-5 * E
Со всех берегов границы и с разных ее сторон.

C  G * Am
И не забудь: есть те, кто быстрее пуль,
E Fmaj7
И если расчеты верны,
Fmaj7 E
Но видит ли кто-нибудь
C  G * Am
Весь этот мир непролитым молоком,
E Fmaj7
И все еще далеко, 
Fmaj7 E
Так далеко до конца войны.

Am E Am
После. Мне все объяснят потом,
E Am  Bm7-5 Bm7-5 * E
Как не перейти поток, как не преступить закон,
Am E Am
Письма холодные, как гранит
E Am  Bm7-5 Bm7-5 * E
Надгробий, что вдоль границы и с разных ее сторон...

C  G * Am
И не забудь: есть те, кто быстрее пуль,
E Fmaj7
И если расчеты верны,
Fmaj7 E
Но видит ли кто-нибудь
C  G * Am
Весь этот мир непролитым молоком,
E Fmaj7
И все еще далеко, 
Fmaj7 E
Так далеко до конца войны.

e-----------------------------------------------------------------------------
B---3----------5--------7--------------------7-------------8-------3----------
G-------4---------2--------2----2---------------2------------2--------4-----4-
D-------------------------------2-------------------------------------------4-
A---2----------4--------5--------------------5-------------7-------2----------
E-----------------------------------------------------------------------------

Am E Am
И я надеваю траур на восточный манер - белый
Dm E
Как всякий, кто будет слеп,
Am E Am
А все, для кого я пела, лягут в черные травы 
Dm E
На этой ничьей земле.

C  G * Am
И не забудь: есть те, кто быстрее пуль,
E Fmaj7
И если расчеты верны,
Fmaj7 E
Но видит ли кто-нибудь
C  G * Am
Весь этот мир непролитым молоком,
E Fmaj7
И все еще далеко, 
Fmaj7 E
Так далеко до конца войны.

Комментарий автора:

Bm7-5    (x5454x)
Bm7-5 *  (x8787x)
G *         (550045)
 
 
Свернуть Распечатать

Видео