Павел Смеян - Непогода, аккорды

Прокрутка
Тональность
Шрифт
100
Intro:
E|-----3-2-3-------3-2-3------2--------0--------------------------0---------|
B|-----3-2-3-------3-2-3--------3--------3------3--------3------0----3------|
G|--------------------------2-----2--------2------4--------4-----------2----|
D|----------------------------0---------------------4--------4-----------4--|
A|--------------0----------------------4--------2--------0------------------|
E|-0------------------------------------------------------------3----2------|

E|------3-2-3-----------0---------------------0-----------------------------|
B|------3-2-3---------2-----2------3--------------0------3----2-------------|
G|------------------0---------0--------4--------1---1----4----2-------------|
D|-----------------------------------4---4--------------------2-------------|
A|---------------1-----------------2----------2----------2----0-------------|
E|-0------------------------------------------------------------------------|

D                               
Изменения в природе 
G                 A              
Происходят год от года
D                                   
Непогода нынче в моде, 
G               A F#   
Непогода, непогода

Bm              Bm+7           
Словно из водопровода, 
Bm7                    E9            
Льёт на нас с небес вода...

       G     A    D Bm 
Полгода плохая погода, 
       G      A    D Bm
Полгода совсем никуда
      G      A     D Bm 
Полгода плохая погода, 
      G     F#    Bm 
Полгода совсем никуда!

Припев:
           Em7      A7     D Dsus2 Bm     
Никуда, никуда нельзя укры-ы-ы-ться  нам,
Em7        A7         D   Dsus2 Bm  
Но откладывать жизнь никак нельзя!
    Em7      A7           D Dsus2  Bm     
Никуда, никуда, но знай, что где-е-е-то там,
     Em7     F#      Bm   A
Кто-то ищет тебя среди дождя...

D
Грома грозные раскаты, 
G                 A    
От заката до восхода
D
За грехи людские плата -
G             A  F#
Непогода, непогода...

Bm              Bm+7           
Не ангина, не простуда, 
Bm7           E9            
Посерьёзнее беда!

       G     A    D Bm 
Полгода плохая погода, 
       G     A    D Bm 
Полгода совсем никуда
       G     A    D Bm 
Полгода плохая погода, 
       G     F#    Bm 
Полгода совсем никуда!

Припев:
           Em7      A7     D Dsus2 Bm     
Никуда, никуда нельзя укры-ы-ы-ться  нам,
Em7        A7         D   Dsus2 Bm  
Но откладывать жизнь никак нельзя!
    Em7      A7           D Dsus2  Bm     
Никуда, никуда, но знай, что где-е-е-то там,
     Em7     F#      Bm   A
Кто-то ищет тебя среди дождя...

           Em7      A7     D Dsus2 Bm     
Никуда, никуда нельзя укры-ы-ы-ться  нам,
Em7        A7         D   Dsus2 Bm  
Но откладывать жизнь никак нельзя!
    Em7      A7           D Dsus2  Bm     
Никуда, никуда, но знай, что где-е-е-то там,
     Em7     F#      Bm   A
Кто-то ищет тебя среди дождя...

     Em7      A7           D Dsus2   Bm    
Никуда, никуда, но знай, что где-е-е-то там,
          Em7     F#     Bm   
Кто-то ищет тебя среди дождя...
 
 

Видео