Project 86 - Smc, аккорды

Прокрутка
Тональность
Шрифт
100
e |-----------------------------|
B |-----------------------------|
G |-----------------------------|
D |-----------------------------|
A |-----------------------------|
D |-0-3-5-6-5-3---0-3-5-6-5-3---|
 

e |-----------------------------|
B |-----------------------------|
G |-----------------------------|
D |-----------------------------|
A |-----------------------------|
D |-0-3-5-6-5-3---0-3-5-6-5-3---|

e |-9-------9-------7-7---------|
B |---8-------8---8-------------|
G |-----7-7-----7---------------|
D |-----------------------------|
A |-----------------------------|
D |-----------------------------|