Queen - Stone Cold Crazy, аккорды

Прокрутка
Тональность
Шрифт
100
E|-----------------------------|
B|-----------------------------|
G|-----------------------------|
D|-----------------------------|
A|-F.B.------------------------|
E|---trem down/release 4 times-|
 
 left and right guitars
E|---------------------------|
B|---------------------------|
G|--------3------------------|
D|--------3------------------|
A|--------1-----1333-2-3-4-5-|
E|-1333331--1333-------------|

 left guitar
E|----|----|------------------------------|
B|----|----|------------------------------|
G|-0/-|-0/-|------------------------------|
D|-/0-|-/0-|--3555530---------------------|
A|----|----|---------1------1333-2-3-4-5--|
E|----|----|------------1333------------3-|
-----------/----------------/|right guitar

riff A
E|-------------------------------------------------------------|
B|-------------------------------------------------------------|
G|-----------------------------------------------3555-4-5-6-7--|
D|-3555530---------------------3555530-------3555------------5-|
A|--------1--------1333-2-3-4-5-------1--3535------------------|
E|-------------1333--------------------------------------------|

two guitars/riff B
E|--------------|
B|-5----5p3---5-|
G|-5----5p3---5-|
D|-5----5p3---5-|
A|-3----3-----3-|
E|--------------|

riff A

two guitars:
E|---------------------------------------------------|
B|---------------------------------------------------|
G|----------------------------------4--2-------------|
D|-5---7--8-9----------------------------4--2--1-----|
A|--------------2---2---2---2---2------------------2-|
E|---------------------------------------------------|

1-st solo:
E|-------------------------------------------------------------|
B|-10b12-12r10p7--------------------------------------------7b-|
G|---------------10p9p7-9-7-----(7)-(7)----------------9p7--7b-|
D|---------------------9---9-----7---7--------------7------9---|
A|---------------------------7h9---9---97-5-7p5-7/9--9---------|
E|-------------------------------------------------------------|

left and right guitars
E|------------------------------|
B|------------------------------|
G|--------3---------------------|
D|--------3---------------------|
A|--------1--------1333-2-3-4-5-|
E|-1333331-----1333-------------|

 left guitar
E|----------------------------------|
B|----------------------------------|
G|--------3-------------------------|
D|--------3-------------------------|
A|--------1-----------1333-2-3-4-5--|
E|-1333331--------1333------------3-|
 right guitar

E|-----------------------------------|
B|-----------------------------------|
G|--------3------------3555-4-5-6-7--|
D|--------3-----3--3555------------5-|
A|--------1--335--5------------------|
E|-1333331---------------------------|

 left guitar
E|----------|---------------------|
B|------5---|-3-------------------|
G|------5---|-3-------------------|
D|------5---|-3-------------------|
A|..PM..----|-3---3p1-3p1---------|
E|-33333----|-------------3p1-3-3-|
 right guitar

two guitars
E|----------|--------------------------------------------------|
B|----------|-3---4----4p2--4----4p2-4----4p2------------------|
G|----------|-3---4----4p2--4----4p2-4----4p2--4-2-------------|
D| riff B   |-3---4----4p2--4----4p2-4----4p2------4---2--0----|
A|----------|-1---2----2----2----2---2----2------------------2-|
E|----------|--------------------------------------------------|

E|-------------|
B|-3---------5-|
G|-3---------5-|
D|-3---------5-|
A|-3---------3-|
E|-------------|

 2-nd solo / 1`23"               1`26"
E|-----------------------------------------------|
B|-----------------------------------------------|
G|-----------------------------------------------|
D|---------------------------79979--7------------|
A|-----0-0-0h2---5---5/9-9-------------9--7--5---|
E|-0h2-----------------------------------------7-|

      >delay on
E|------------------------------------------------10b12-|
B|----------------------10b12-----12r10p7---------------|
G|-9b11---9b11r9---7---------------------10p9p79p7------|
D|------------------------------------------------------|
A|------------------------------------------------------|
E|------------------------------------------------------|

E|-12r10p7-------77------------------------------------------|
B|--------10b12----10b12r10p710p77---------------------------|
G|--------------------------------10p9p79p79b11--7-----------|
D|--------------------------------------------------9--7-----|
A|--------------------------------------------------------9/-|
E|-----------------------------------------------------------|

E|--------------------------------------------------|
B|--------------------------------------------------|
G|-12----12----13----13---14----15----16----17---18-|
D|---1412--1412--1513---13--1614--1715--1816---17---|
A|--------------------------------------------------|
E|--------------------------------------------------|

E|-----------------------------|
B|-------------------20b22__vv-|
G|---20---21---21--------------|
D|-18---19---19--20------------|
A|-----------------------------|
E|-----------------------------|

two guitars
E|---------|
B|---------|
G|---------|
D| riff A  |
A|-------3-|
E|---------|

right guitar/1`59"
E|------------|
B|------------|
G|------------|
D|------------|
A|------------|
E|-xxxxxx.....|

two gtrs.
E|----------------|
B|----------------|
G|----------------|
D|-5 riff B   -5--|
A|-5-----------5--|
E|-3-----------3--|
 
 
Свернуть Распечатать

Видео