Queen - She Makes Me, аккорды

Прокрутка
Тональность
Шрифт
100
Collection of riffs: 
 |-2-2-2-0----| |-2-2-2-3----| |-3-3-3-3----| |-3-3-3-0----|
 |-3-3-3-2----| |-3-3-3-1----| |-1-1-1-3----| |-3-3-3-2----|
 |-2-2-2-2----| |-2-2-2-0----| |-0-0-0-0----| |-0-0-0-2----|
 |-0-0-0-2----| |-0-0-0-0----| |-0-2-2-0----| |-0-0-0-2----|
 |-------0----| |------------| |-------2----| |-2-2-2-0----|
 |------------| |------------| |------------| |------------|

 -0---0--0--0--0--0--0--0--0--2--2--2--2--2--2--2----2---0--0--4--4--2--2-------
 -0---2--2--0--0--2--2--2--2--0--0--2--2--0--2--3--232-3-2--2--6--6--2--2--4--4-
 -1---2--2--1--1--2--2--1--0--2--2--2--2--2--2--2----2---2--2--4--4--2--2--4--4-
 -2---2--2--2--2--2--2--2--2--0--0--0--0--0--0--0----0---2--2--6--6--4--4--4--4-
 -2---0--0--2--2--0--0--0--0-----------------------------0--0--4--4--4--4--2--2-
 -0---------0--0-----------------------------------------------------2--0-------

 -2--2--2---
 -3--3--3---
 -2--2--2---
 -0--0--0---
 -----------
 -----------

 |-5-5-5-3----| |-3-3-3-1----| |-3-3-3-1----| |-3-3-3-1----| |-1-0-1-0--|
 |-7-7-7-5----| |-5-5-5-3----| |-5-5-5-1----| |-3-3-3-1----| |-3-2-2-1--|
 |-7-7-7-5----| |-5-5-5-3----| |-4-4-4-2----| |-4-4-4-2----| |-3-3-3-2--|
 |-0-0-0-0----| |-0-0-0-0----| |-0-0-0-0----| |-0-0-0-0----| |-------0--|
 |------------| |------------| |------------| |------------| |----------|
 |------------| |------------| |------------| |------------| |----------|
 
 
Свернуть Распечатать

Видео