Queen - The Show Must Go On, аккорды

Прокрутка
Тональность
Шрифт
100
Intro:
     Am      Asus2   Asus4     Am      F        F-5
  E|-0-0-0-0-0-0-0-0--0-0-0-0-0-0-0-0--1-1-1-1-1-1-1-1-| 
  B|-1-1-1-1-0-0-0-0--3-3-3-3-1-1-1-1--1-1-1-1-0-0-0-0-| 
  G|-2-2-2-2-2-2-2-2--2-2-2-2-2-2-2-2--2-2-2-2-2-2-2-2-| 
  D|-2-2-2-2-2-2-2-2--2-2-2-2-2-2-2-2--3-3-3-3-3-3-3-3-| 
  A|---------------------------------------------------| 
  E|---------------------------------------------------| 
 
   F6      F 
  E|-1-1-1-1-1-1-1-1-| 
  B|-3-3-3-3-1-1-1-1-| 
  G|-2-2-2-2-2-2-2-2-| 
  D|-3-3-3-3-3-3-3-3-| 
  A|-----------------| 
  E|-----------------| 
 
    Dm7       Dm6     Esus4   E          Dm    Dm-5 
  E|-1-1-1-1-1-1-1-1--0-0-0-0-0-0-0-0--1-----1--| 
  B|-3-3-3-3-0-0-0-0--0-0-0-0-0-0-0-0--3-----3--| 
  G|-2-2-2-2-2-2-2-2--2-2-2-2-1-1-1-1--2-----1--| 
  D|-0-0-0-0-0-0-0-0--2-2-2-2-2-2-2-2--0-----0--| 
  A|------------------2-2-2-2-2-2-2-2-----------| 
  E|------------------0-0-0-0-0-0-0-0-----------| 
 
 Dm-5   Am            Am       
Empty spaces what are we living 
         F 
for abandoned places I guess we 
F             Dm7      Dm6  Esus4 
know the score on and on does anybody 
    E             Dm
know what we are looking for 
  Dm-5    Am           Am          
another hero another mindless crime 
            F 
behind the curtain in the 
F          Dm7          Dm6  Esus4 
pantomime hold the line does anybody 
    E               Dmi 
want to take it any-more. The 
             Am  Am               F  F     Dm7 
show must go on the show must go on in-side my 
           Dm6       Esus4         
heart is breaking my make-up may be
     E          Dm     Dm-5 
flaking but my smile still 
 
  Am        Am            Bm          
stays on  Whatever  happens I'll leave 
           Bm 
it all to chance another 
G                 G 
heartache another failed romance 
  Em7       Em6  F#sus4       F# 
on and on does anybody know what 
                Em    Em-5            
we are living for I guess I'm learning 
Bm                Bm 
I must be warmer now 
             G                 G     
I'll soon be turning round the corner 
        Em7          Em6 
now out-side the dawn is breaking 
   F#sus4             F#        Em
but inside in the dark I'm aching 
        Em-5  Dm
to be free The show must go 
  Am    Am                 F   F   Dm7           Dm6
on the show must go on in-side my heart is breaking 
 Esus4              E         Dm       Dm-5  Am   Am  F 
my make-up may be flaking but my smile still stays on 
 
F    Dm7    Dm6  Esus4 E   Dm    Dm-5 Eb F Dm
My soul is painted like the wings of
         Gm   Eb            F                Dm          Gm
butterflies fairytales of yesterday will grow but never die 
   G9          C                              Am          Am
I can fly my friends The show must go on the show must go on
F     F         Dm7                 Dm6   Esus4  E Dm
I'll face it with a grin I'm never giving in on  with the 
    Am  Am  F F     Dm7              Dm6       Esus4 
show I'll top the bill I'll overkill I have to find the 
E            Dm         Dm-5      Dm            Am 
will to carry on with the show show The show must go on
 
 
Свернуть Распечатать

Видео