Queen - My Baby Does Me, аккорды

Прокрутка
Тональность
Шрифт
100

QUEEN: My baby does me
 
 
 |----------8-11-10-----------|---------11-10-8---------|
 |-------11---------8-11b13v--|-------8---------11------|
 |-10b12----------------------|-10b12--------------10v--|
 -------------------------------|
 -------------------------------|
 -------------------------------|
 
 |------8--------------10---------|---8---11b13vvr/13b15-|
 |----8---8-11b13vvrp8----11------|-8---8----------------|
 |-10------------------------10v-------------|
 --------------------------------|
 --------------------------------|
 --------------------------------|
 

 
 

Видео