Rainbow - Maybe Next Time, аккорды

Прокрутка
Тональность
Шрифт
100
Part 1:
E------------------|-------------------|-----------------|-----------------|
B------------------|-------------------|-----------------|-----------------|
G-----2--2/7---5~--|-4--5--42~~--------|---2--2/7---5~---|-4--5--4h5h4~~---|
D--2~--------------|-------------------|-2---------------|-----------------|
A------------------|-------------------|-----------------|-----------------|
e------------------|-------------------|-----------------|-----------------|

E------------------|-------------------|-----------------|-----------------|
B-----5-5/6--5~----|-------------------|-----------------|-----------------|
G---5--------------|---5-5/9--7~~------|-9--7--75-5~-----|--42~~-----------|
D-5----------------|-5-----------------|-----------------|-----------------|
A------------------|-------------------|-----------------|-----------------|
e------------------|-------------------|-----------------|-----------------|

E------------------|-------------------|----5--7--8-7~---|-8~--7-75-5~~----|
B---------------6~-|-8--6--5h6h5~~-----|--3--------------|-----------------|
G-2--5--7~---7-9---|-------------------|-----------------|-----------------|
D------------------|-------------------|-----------------|-----------------|
A------------------|-------------------|-----------------|-----------------|
e------------------|-------------------|-----------------|-----------------|

Part 2:
E------------------|-------------------|-----------------|-----------------|
B------------------|-------------------|-----------------|-----------------|
G-----2--2/7---5~--|-4--5--42~~--------|---2--2/7---5~---|-4--5--4h5h4~~---|
D--2~--------------|-------------------|-2---------------|-----------------|
A------------------|-------------------|-----------------|-----------------|
e------------------|-------------------|-----------------|-----------------|

E------------------|-------------------|-----------------|-----------------|
B-----5-5h6h5--6-5~|-6-5~--6~-5~~~-----|-----------------|-----------------|
G---5--------------|-------------------|-9-9--9-9-7~-7^7~|-9-7--75-5~~~----|
D-5----------------|-------------------|-----------------|-----------------|
A------------------|-------------------|-----------------|-----------------|
e------------------|-------------------|-----------------|-----------------|

E------------------|-------------------|-----------------|-----------------|
B-------6~-6-8-10~-|--10--13--15~~~----|-15--13--15~~----|--15-15-1513~~---|
G-5-7-9------------|-------------------|-----------------|-----------------|
D------------------|-------------------|-----------------|-----------------|
A------------------|-------------------|-----------------|-----------------|
e------------------|-------------------|-----------------|-----------------|

E------------------|---5---7---8-7~~---|-8~~-7-75-5~-----|-----------------|
B--13-13-1312-12~--|-5---5---5---------|-----------------|-----------------|
G------------------|-------------------|-----------------|-----------------|
D------------------|-------------------|-----------------|-----------------|
A------------------|-------------------|-----------------|-----------------|
e------------------|-------------------|-----------------|-----------------|

Комментарий автора:

tabbed by Nesho Neshev
 
 

Видео