Red Lamp - Помню, аккорды

Прокрутка
Тональность
Шрифт
100
Вступление: 
Ритм: после аккорда дергать струны 1 и 2)

Мелодия:
e---------------------------------------------------------------------------------------------------------------------
B-2⋂7------7-----5--7----7-----3-----7-----5-3--0---2⋂7------7----5--7----7----3-----7-----6-5-3-6-5-3-6-5-3-6-5-3⋂7-
G------------6-2-----------6-2---------6-2---------------------6-2----------6-2--------6-2----------------------------
D--------------------------------------------------------------------------------------------------------------------
A---------------------------------------------------------------------------------------------------------------------
E---------------------------------------------------------------------------------------------------------------------

Далее мелодия повторяется весь припев:

Можно попробовать играть приглушенно:
e---------2-----------------
B-0-0-0-0---3-3-3-0-3-0-3-2- x3
G---------------------------
D---------------------------
A---------------------------
E---------------------------

e---------2-----------2-----
B-0-0-0-0---3-3-3-0-0---3-3- 
G---------------------------
D---------------------------
A---------------------------
E---------------------------
(Либо просто постоянно верхнюю не x3 а всё время)

А я был готов танцевать под мокрые кроссы.
Не ожидал, но я помню все твои слезы.
Ты как всегда вновь проходишь мой перекресток.
Если готова любить, то ещё не поздно.
А я всегда отдавал, не просил обратно,
Кино, кафе, ресторан, брал в долг до зарплаты
Я музыкант, есть талант без сцен и фанатов,
Но я пахал, ведь я знал, тебе это надо

1 Куплет: (советую просто проводить вниз)
Bm7           Asus4
Я как самолёт, ты автопилот,
Em7                   G
Мы даже не знаем куда это заведё-ёт.
Bm7                     Asus4
Каждый наш полёт, будто первый раз на лёд
Em7                       G
С тобой сердце бьётся, без тебя наоборот
     Bm7             Asus4
Твоё тело песчаный бархан, а я в нем утонул
   Em7            G
На вечно меня приковал твой взгляд,
            Bm7           Asus4
Манили твои плечи, моя голова 
                  Em7      G
Отключается в этот вечер, оу

Припев:
e---------2-----------------
B-0-0-0-0---3-3-3-0-3-0-3-2- x3
G---------------------------
D---------------------------
A---------------------------
E---------------------------

e---------2-----------2-----
B-0-0-0-0---3-3-3-0-0---3-3- 
G---------------------------
D---------------------------
A---------------------------
E---------------------------

А я был готов танцевать под мокрые кроссы.
Не ожидал, но я помню все твои слезы.
Ты как всегда вновь проходишь мой перекресток.
Если готова любить, то ещё не поздно.
А я всегда отдавал, не просил обратно,
Кино, кафе, ресторан, брал в долг до зарплаты
Я музыкант, есть талант без сцен и фанатов,
Но я пахал, ведь я знал, тебе это надо

2 Куплет: 
(играть аккорд движением вниз, не боем, 
и затем дергать струны 1 и 2):
Bm7              Asus4
     А что теперь?
                             Em7
Стены моего подъезда ждут тебя снова
                          G
Но мы будто не знакомы совсем
          Bm7                      Asus4
Зато ты с ним у него ведь прикольная тачка,
                              Em7
С ним ты нюхаешь, с ним ты не плачешь
                  G
А я просто пою и батрачу.

Припев:
e---------2-----------------
B-0-0-0-0---3-3-3-0-3-0-3-2- x3
G---------------------------
D---------------------------
A---------------------------
E---------------------------

e---------2-----------2-----
B-0-0-0-0---3-3-3-0-0---3-3- 
G---------------------------
D---------------------------
A---------------------------
E---------------------------
А я был готов танцевать под мокрые кроссы.
Не ожидал, но я помню все твои слезы.
Ты как всегда вновь проходишь мой перекресток.
А я ведь мог подарить тебе звёздную россыпь.
А я всегда отдавал, не просил обратно,
Кино, кафе, ресторан, брал в долг до зарплаты
Я музыкант, есть талант без сцен и фанатов,
Но я пахал, ведь я знал, тебе это надо

Outro = Intro:
e---------------------------------------------------------------------------------------------------------------------
B-2⋂7------7-----5--7----7-----3-----7-----5-3--0---2⋂7------7----5--7----7----3-----7-----6-5-3-6-5-3-6-5-3-6-5-3⋂7-
G------------6-2-----------6-2---------6-2---------------------6-2----------6-2--------6-2----------------------------
D---------------------------------------------------------------------------------------------------------------------
A---------------------------------------------------------------------------------------------------------------------
E---------------------------------------------------------------------------------------------------------------------

Комментарий автора:

⋂ - слайд

Asus4 [557755]
Em7 [x22030] 
G [320033]
 
 
Свернуть Распечатать

Видео