Saves The Day - Jessie And My Whetstone, аккорды

Прокрутка
Тональность
Шрифт
100
TAB IS FROM KYLE ALLEN


E--------------------
B--------------------   REAPEAT UNTIL CHORUS
G--------------------
D--6---4------2------
A--4---2--7---2------
E---------5----------


CHORUS

E--------------------
B--------------------
G--------------------         HAND MUTE 
D-----------2--------
A--7----6---2--------
E--5----5------------


THAT IS BASICALLY THE WHOLE SONG