Sham 69 - Hurry Up Harry, аккорды

Прокрутка
Тональность
Шрифт
100
Intro: 
       D                      D    A    D    A  
e|-----------------------------------------| 
B|----7--7--7--7--7--7-----7-----7---------| 
G|----7--7--7--7--7--7-----7-----7---------|  X 2 
D|----7--7--7--7--7--7-----7--7--7--7------| 
A|----5--5--5--5--5--5-----5--7--5--7------| 
E|----------------------------5-----5------| 
 
   Come on……  come on  hurry up Harry    come on 
      D                   G                   A  
e|---------------------------------------------------| 
B|---------------------------------------------------| 
G|---7--7--7--7--7--7--------------------------------|  X 2 
D|---7--7--7--7--7--7--5--5--5--5--5--5--7--7--7--7--| 
A|---5--5--5--5--5--5--5--5--5--5--5--5--7--7--7--7--| 
E|---------------------3--3--3--3--3--3--5--5--5--5--| 
 
     We’re      going down the pub 
      C            G                A           D    A  D  A  
e|----------------------------------------------------| 
B|---------------------------------------7-----7------| 
G|--5--5--5--5---------------------------7-----7------| X 2 
D|--5--5--5--5--5--5--5--5--7--7--7--7---7--7--7--7---| 
A|--3--3--3--3--5--5--5--5--7--7--7--7---5--7--5--7---| 
E|--------------3--3--3--3--5--5--5--5------5-----5---| 
 
  Verses: 1, 2, 3 
     C             G             D             C             G             D  
e|---------------------------------------------------------------------------| 
B|---------------------------------------------------------------------------| 
G|--5--5--5--5--------------7--7--7--7--5--5--5--5--------------7--7--7--7---| 
D|--5--5--5--5--5--5--5--5--7--7--7--7--5--5--5--5--5--5--5--5--7--7--7--7---| 
A|--3--3--3--3--5--5--5--5--5--5--5--5--3--3--3--3--5--5--5--5--5--5--5--5---| 
E|--------------3--3--3--3--------------------------3--3--3--3---------------| 
 
     F             C             G             A              D    A    D    A  
e|--------------------------------------------------------------------| 
B|---------------------------------------------------7-----7----------| 
G|--------------5--5--5--5---------------------------7-----7----------| 
D|--3--3--3--3--5--5--5--5--5--5--5--5--7--7--7--7---7--7--7--7-------| 
A|--3--3--3--3--3--3--3--3--5--5--5--5--7--7--7--7---5--7--5--7-------| 
E|--1--1--1--1--------------3--3--3--3--5--5--5--5------5-----5-------| 
 
  Middle Section: (Piano Bit) Good place to improvise a guitar solo over the following  
That’s what I do! 
 
     A             E              G                D                     D    A    D    A  
e|------------------------------------------------------|     |--------------| 
B|--------------7--7--7--7--12--12--12--12--7--7--7--7--|     |-7-----7------| 
G|--------------7--7--7--7--12--12--12--12--7--7--7--7--|     |-7-----7------| 
D|--7--7--7--7--7--7--7--7--12--12--12--12--7--7--7--7--| X2  |-7--7--7--7---| 
A|--7--7--7--7--9--9--9--9--10--10--10--10--5--5--5--5--|     |-5--7--5--7---| 
E|--5--5--5--5------------------------------------------|     |----5-----5---|
 
 

Видео