Smash Mouth - All Star, аккорды

Прокрутка
Тональность
Шрифт
100
play through verse
(listen to record to find out how often repeated)

guitar
T---3---5-5---4---3--3
 ---3---7-7---4---5--5
A---4---7-7---4---5--5
 --(don't use this string)
B--(don't use this string)
 --(don't use this string)

bass
B--------------------
A--------------------
S----4-5--7---------5
S-3---------5--7-8---

The tabs are in time with eachother.

play through chours

T-3-3--x-x--9 -9 -9 -9 --10-10--x-x--9 -9 -9 -9--
 -3-3--x-x--9 -9 -9 -9 --10-10--x-x--9 -9 -9 -9--
A-4-4--x-x--10-10-10-10--10-10--x-x--10-10-10-10-
 -5-5--x-x--11-11-11-11--12-12--x-x--11-11-11-11-
B-5-5--x-x--11-11-11-11--12-12--x-x--11-11-11-11-
 -3-3--x-x--9 -9 -9 -9 --10-10--x-x--9 -9 -9 -9 -