Spice Girls - Viva Forever, аккорды

Прокрутка
Тональность
Шрифт
100
|------------------|
|      KEY         |
|		   |
|    h=hammer      |
|   ~=Vibrato	   |
|------------------|


Accoustic Guitar solo after 2nd repeat of chorus

e---6---6---6------------------------------------6---6---6----------------------|
B---7-----------9---7---6---7---7----------------7-----------9---7---6----------|
G---8--------------------------------------------8-----------------------6------|
D---8--------------------------------------------8------------------------------|
A-------------------------------------------------------------------------------|
E-------------------------------------------------------------------------------|

e------------------6--7--7h9--7--7~~~----------6---7---7---6------7---6---6~~~~-|
B---------6--7--9----------------------------------------------9----------------|
G---6--8------------------------------------------------------------------------|
D-------------------------------------------------------------------------------|
A-------------------------------------------------------------------------------|
E-------------------------------------------------------------------------------|

e---6---6---6------------------------------------6---6---6----------------------|
B---7-----------9---7---6---9---7----------------7-----------9---7---6----------|
G---8--------------------------------------------8-----------------------6------|
D---8--------------------------------------------8------------------------------|
A-------------------------------------------------------------------------------|
E-------------------------------------------------------------------------------|


e------------------6--9--9--7--7~~~----------6---7---7---6--------7---6---------|
B---------6--7--9---------------------------------------------9-----------7~~~~-|
G---6--8------------------------------------------------------------------------|
D-------------------------------------------------------------------------------|
A-------------------------------------------------------------------------------|
E-------------------------------------------------------------------------------|
 
 

Видео