TequilaJazzz - Кроме звезд, аккорды

Прокрутка
Тональность
Шрифт
100
Intro: x5
1|----------------------------------------------------------------|
2|0s2-2-2-2---2-2---3---3---3-2---0---0-0-0---0-0---0-0---0-0---0-|
3|----------------------------------------------------------------|
4|----------------------------------------------------------------|

Verse: part1 x2
1|----------------------------------------------------------------|
2|0---0-0-0---0-0---0-0---0-0---0-2---2-2-2---2-2---2-2---2-2---2-|
3|----------------------------------------------------------------|
4|----------------------------------------------------------------|

1|----------------------------------------------------------------|
2|4---4-4-4---4-4---4-4---4-4---4-3---3-3-3---3-3-7-7---7---7-7---|
3|----------------------------------------------------------------|
4|----------------------------------------------------------------|

Verse: part2 x1
1|----------------------------------------------------------------|
2|----------------------------------------------------------------|
3|5---5-5-5---5-5---5-5---5-5---5-4---4-4-4---4-4-4-4---4---4-4---|
4|----------------------------------------------------------------|

1|----------------------------------------------------------------|
2|----------------------------------------------------------------|
3|3---3-3-3---3-3---3-3---3-3---3-2---2-2-2---2-2-1-1---1---1-1---|
4|----------------------------------------------------------------|

1|----------------------------------------------------------------|
2|0---0-0-0---0-0---0-0---0-0---0-2---2-2-2---2-2---2-2---2-2---2-|
3|----------------------------------------------------------------|
4|----------------------------------------------------------------|

1|----------------------------------------------------------------|
2|4---4-4-4---4-4---4-4---4-4---4-5---5-5-5---5-5---5-5---5-5---5-|
3|----------------------------------------------------------------|
4|----------------------------------------------------------------|

Chorus: x4
1|----------------------------------------------------------------|
2|0---0-0-0---0-0---0-0---0-0---0-2---2-2-2---2-2-3-3---3---3-3---|
3|----------------------------------------------------------------|
4|----------------------------------------------------------------|

Комментарий автора:

Текст песни:
Слева - берег, справа - ночь,
Под ногами - ворохи огня.
Дым не может мне помочь, 
Он и сам зависит от меня.
Он зависит от того,
Сколько дней и для чего
Мы потратили на этот мост.
После долгого дождя
Нам осталось все,
Но кроме звезд
        
Сверху - небо, снизу - тень
И по-прежнему не греет дым
Солнцу вмешиваться лень,
Вот и птицы улетят за ним.
И под каждым их крылом
Ветер, посланный огнем,
Будет петь о перемене гнезд.
После долгого пути
Им оставит все, 
Но кроме звезд

То ли было, то ли нет -
Это дело предрассветных туч.
Бесполезный лунный свет
Будет прятать в них свой сонный луч.
Он запутаться бы рад
В ста осях координат
И оставить надоевший пост.
За обветренным стеклом - 
Песни обо всем,
 Но кроме звезд.
 
 

Видео