Tool - Eulogy, аккорды

Прокрутка
Тональность
Шрифт
100
Tool                        Art Corella
Eulogy solo and outro

i promise as usual that this is one hunred percent correct!!!!!!!

dropped d tuning  ( these 1/2 are half step bends)

solo

---------------------------------------------------------------------|
------------------------------------------------------0------0-------|
-7-9--7-9--7-9--7-9--7-9--7-9--7-9--7-9--7-9----7-9-7---10-9---7-1/2-|
---------------------------------------------------------------------|
---------------------------------------------------------------------|
---------------------------------------------------------------------|

outro

--------------------------------------------------------------------|
--------------------------------------------------------------------|
-9-99-99-9/10-10-10-10---5-5--2-2-2-2-2-2-2-2-----------------------|
-7-77-77-7/8--8--8--8----5-5--2-2-2-2-2-2-2-2-----------------------|
-7-77-77-7/8--8--8--8----3-3--0-0-0-0-0-0-0-0-----------------------|
--------------------------------------------------------------------|

end with this

--------------------------------------------------------------------|
--------------------------------------------------------------------|
--------------------------------------------------------------------|
-2222-2222-2222-2222-2222-2222-2222-2222----------------------------|
-2222-2222-2222-2222-2222-2222-2222-2222----------------------------|
-2222-2222-2222-2222-2222-2222-2222-2222----------------------------|

thank you, thank you!!!!!!!!!!!!!!!!!!!!!!!!!!!!!!!!!!!!!!!!!!!!!!!!
 
 

Видео