Tool - The Patient, аккорды

Прокрутка
Тональность
Шрифт
100
The Patient
by TOOL
tabbed by Keegan Campbell(sixdust@guitarsrule.com)
Drop D tuning, like usual (DADGBE)

Part 1
palm mute throughout

B----------------------|
G----------------------|
D----------------------|
A---5-7---5-7--3-5-0-7-|
D-3-----0--------------|

part 2
B----------------------|
G----------------------|
D----------------------|
A-0-3-5-0-7--0-3-5-0-7-|
D----------------------|

heavy riff-distortion
B-----------------------------|
G-5--------------9------------|
D-3----0----5----7----8-7-5-0-|
A-3----0----5----7----8-7-5-0-|
D-3----0----5----7----8-7-5-0-|
                    pm........

solo type thing
B--------------------------------------|
G---5------5-----------5------5--------|
D-7---5-7----5---7---7---5-7----5---7--|
A--------------------------------------|
D--------------------------------------|

B---------------------------------|
G---5----------5------------------|
D-7---5-7--------5---7-7/8-7-5-7--|
A---------------------------------|
D---------------------------------|

Play this again, but with distortion, palm mute after so many measures
B----------------------|
G----------------------|
D----------------------|
A-0-3-5-0-7--0-3-5-0-7-|
D----------------------|

slight variation
B----------------------------|
G----------------------------|
D----------------------------|
A-0-3-5-0-7--0-3-5-0-7-5-3-5-|
D----------------------------|


I dont have the heavy ending down right now, but Ill update this tab when
I figure it out...
 
 

Видео