Туризм - Люся, аккорды

Прокрутка
Тональность
Шрифт
100
Проигрыш: Am Dm E
------------------------------------------
------------------------------------------
------------------------------------------
---2--2--2----2-------------------------
-------------1----1--3--3--3--1--1--0-
------------------------------------------


-------------------------------------------
--------------------------------------------
--------------------------------------------
--2--2--2-----2---------------------------
------------1------1--3--3--3-------------
----------------------------------1--1--0--

Куплет1:
Am
Вставай Люся! Доброе утро!
Я плохо помню вечер,
Но верю было круто!
F                     G
Туса в угаре, диджей в ударе...
Am
Вставай Люся!

Am
Вставай Люся! И спой мне песню!
Поверь мне - мне будет интересно!
F                  G
Comon baby! What my fire!
Am
Вставай Люся!

Припев:
F                    G
Смотри какое небо над нами.
Em         Am        
Я знаю, Люся мне не соврала.

Куплет2:
Am
Вставай Люся! Кто эти люди?
Они сломали двери, уже вошли внутрь.
F                   G
Какая кома?! Идите нахер!
Вставай Люся!

Am
Вставай Люся! Харэ динамить.
Твои друзья в белом меня уже достали.
F                          G
Дышы! Слышишь? Живи, дура!
Am
Вставай Люся!

Припев:
F                   G
Смотри какое небо над нами.
Em         Am
Я знаю, Люся мне не соврала.

F                   G
Смотри какое небо над нами.
Em         Am
Я знаю, Люся мне не соврала.
 
 
Свернуть Распечатать

Видео