U2 - Beautiful Day, аккорды

Прокрутка
Тональность
Шрифт
100
Intro (piano): A Bm D G   
               A D A

In the live The edge play harmonics (with delay):
e------------------------------------------
B---------7----------------7---------------
G-------------7--------7--------7--------7-
D-----------------7-----------------7------
A------------------------------------------
E------------------------------------------

                 A Bm D G      	   
The heart is a bloom,       
D                 A
Shoots up throught the stony ground
                 A Bm D G
But there's no room, 
D                 A
No space to rent in this town 

Riff 1:
e--------------------0---------------------0----
B---------------0--------0--------------------0-
G-------6---7-----------------6---7---6---------
D-------------------------------------7---------
A-----------------------------------------------
E-----------------------------------------------

                A Bm D G
You're out of luck 
D                     A
And the reason that you had to care,
                  A Bm D G       
The traffic is stuck 
D                    A
And you're not moving anywhere.
                           A Bm D G
You thought you'd found a friend 
D                  A
To take you out of this place
               A  Bm  D G     
Someone you could lend a hand  
D             A
In return for grace 
A
It's a beautiful day

Riff 2:
       A    Bm   D        G         D            A 
e------5----7----10----3---3--------10----10-----5----5-
B------5----7----10----3---3--------10----10-----5----5-
G------6----7----11----4---4--------11----11-----6----6-
D------7----9----12----5---5--------12----12-----7----7-
A------7----9----12----5---5--------12----12-----7----7-
E------5----7----10----3---3--------10----10-----5----5-

                  A Bm D G       
The sky falls and you feel like 
D             A
It's a beautiful day
                  A Bm D G       
It's a beautiful day
D             A
Don't let i get away

Riff 1 (more heavily):
e--------------------0---------------------0----
B---------------0--------0--------------------0-
G-------6---7-----------------6---7---6---------
D-------------------------------------7---------
A-----------------------------------------------
E-----------------------------------------------

You're on the road but you've got no destination
You're in the mud, in the maze of her imagination
You love this town even if it doesn't ring true
You've been all over and it's been all over you
It's a beautiful day

Riff 2:
       A    Bm   D        G         D            A 
e------5----7----10----3---3--------10----10-----5----5-
B------5----7----10----3---3--------10----10-----5----5-
G------6----7----11----4---4--------11----11-----6----6-
D------7----9----12----5---5--------12----12-----7----7-
A------7----9----12----5---5--------12----12-----7----7-
E------5----7----10----3---3--------10----10-----5----5-

Don't let it get away
It's a beautiful day
Don't let it get away

Riff 3:
(take a look to the selector of the guitar(down))
e-----------------------------------------------
B-----14----14----14----12---14----15---15---15-
G-----14----14----14----14---14----14---12---12-
D-----------------------------------------------

e--------------------------------------------
B-----15---15---15---15---15----15---14---15-
G-----12---12---12---14---14----14---14---14-
D--------------------------------------------

e---------------------------------------------------
B-----14----12---14---12---14---12----14----12---14-
G-----14----14---14---14---14---14----14----14---14-
D---------------------------------------------------

F#m      G  D               A          
Touch me, take me to the other place
F#m      G  G               A
Teach me, I know I'm not a hopeless case

Riff 1:
e--------------------0---------------------0----
B---------------0--------0--------------------0-
G-------6---7-----------------6---7---6---------
D-------------------------------------7---------
A-----------------------------------------------
E-----------------------------------------------

Em
See the world in green and blue
D
See China right in front of you
Em              G
See the canyons broken my cloud
D
See the tuna fleets clearing the sea out
Em             G  
See the bedouin fires at night
D         
See the olis fields at first light 
Em               G
See the bird with a leaf inher mouth
D
After the flood all the colours came out
D
It was a beautiful day

Riff 2:
       A    Bm   D        G         D            A 
e------5----7----10----3---3--------10----10-----5----5-
B------5----7----10----3---3--------10----10-----5----5-
G------6----7----11----4---4--------11----11-----6----6-
D------7----9----12----5---5--------12----12-----7----7-
A------7----9----12----5---5--------12----12-----7----7-
E------5----7----10----3---3--------10----10-----5----5-

Beautiful day
Don't let it get away

Riff 3:
e-----------------------------------------------
B-----14----14----14----12---14----15---15---15-
G-----14----14----14----14---14----14---12---12-
D-----------------------------------------------

e--------------------------------------------
B-----15---15---15---15---15----15---14---15-
G-----12---12---12---14---14----14---14---14-
D--------------------------------------------

e---------------------------------------------------
B-----14----12---14---12---14---12----14----12---14-
G-----14----14---14---14---14---14----14----14---14-
D---------------------------------------------------

F#m     G  D          A
Touch me, take me to that other place
F#m     G  D           A
Reach me, I know i'm not a hopeless case

Riff 4:
e-------------------0---------------0-----------0---------
B-----------7---------------7--------------8---------8----
G-------6--------6------7-------7----7-------7----7-----7-
D---------------------------------------------------------

e-----------------0----------------0----0--0--0--0--0--0--0-
B----------7---------------7------------5--7--5--7--5--7--5-
G------7-------7-------7-------7----------------------------
D-----------------------------------------------------------

         A        Bm       D          G
What you don't have you don't need it now
         D                     A
What you don't know you can feel it someone
         A         Bm       D          G
What you don't have you don't need it now
         D                     A
You don't need it now, you don't need it now
A
Was a beautiful day……

Riff 3:
e-----------------------------------------------
B-----14----14----14----12---14----15---15---15-
G-----14----14----14----14---14----14---12---12-
D-----------------------------------------------

e--------------------------------------------
B-----15---15---15---15---15----15---14---15-
G-----12---12---12---14---14----14---14---14-
D--------------------------------------------

e---------------------------------------------------
B-----14----12---14---12---14---12----14----12---14-
G-----14----14---14---14---14---14----14----14---14-
D---------------------------------------------------

Outro:
G-------------------------------------
D----7----9----12----5--------12----7-
A-------------------------------------
E----5----7----10----3--------10----5-

G----------------------
D----7----9----12----5-
A----------------------
E----5----7----10----3-

Комментарий автора:

Tabbed by Filippo Donati
 
 

Видео