U2 - Sunday Bloody Sunday, аккорды

Прокрутка
Тональность
Шрифт
100
Intro:
E-----2------------2--------------0-------0---
B---3---3--------3---3----------3---3---3---3-
G-4------------2--------------0-------0------- x2
D---------------------------------------------
A---------------------------------------------
E---------------------------------------------

D                                    Em
How long, How long must we sing this song,
D         Em
How long, How long.
Bm      D G   
Tonight, we can be as one, tonight.

Bm     D             G
Broken Bottles under childrens feet
Bm     D               G
Bodies strewn across a dead end street
Bm   D      G
I won't heed the battle call 
Bm          D          G                             
It put's my back up my back up against the wall

E-----2------------2--------------0-------0---
B---3---3--------3---3----------3---3---3---3-
G-4------------2--------------0-------0-------
D---------------------------------------------
A---------------------------------------------
E---------------------------------------------
Sunday, bloody Sunday, Sunday, bloody Sunday

Bm     D             G
And the battles just begun
Bm     D               G
many lost but tell me who has won
Bm     D             G
trenches dug within our hearts
Bm     D               G
mothers, children, brothers, sisters torn apart.

E-----2------------2--------------0-------0---
B---3---3--------3---3----------3---3---3---3-
G-4------------2--------------0-------0-------
D---------------------------------------------
A---------------------------------------------
E---------------------------------------------
Sunday, bloody Sunday, Sunday, bloody Sunday

Bm     D             G
And it's true we are immune
Bm     D               G
when fact is fiction and T.V is reality
Bm     D             G
and today the millions cry
Bm     D               G
we eat and drink while tomorrow they die.

E-----2------------2--------------0-------0---
B---3---3--------3---3----------3---3---3---3-
G-4------------2--------------0-------0-------
D---------------------------------------------
A---------------------------------------------
E---------------------------------------------
Sunday, bloody Sunday, Sunday, bloody Sunday
 
 

Видео