Uriah Heep - Shelter From The Rain, аккорды

Прокрутка
Тональность
Шрифт
100
First you must play your guitar like shown below to
the indicated chords (string by string):
  Em7         A             Am          B
[E-----------------------------0------------------
B----8-----------------------0-----------0-------
G---0------------0----------5-----------0-0------
D--9------------0----------7-----------4---4-----
A-7------------4----------0-----------2----------
E-------------5----------------------------------]
    D          B/D#        Bm          Cm9
[E------------------------------------------------
B----(3)---------------------3-----------3-------
G---0------------0----------0-----------0--------
D--4------------4----------4-----------4---------
A-5------------6----------2-----------3----------
E------------------------------------------------]

Opening guitar:
  Em7       Cmaj9     Em7
[E---------------------------------------------------
B-----------------------15-13-12-12-----------------
G-12-12h14p12-----12-14--------------12-12h14p12----
D-------------14---------------------------------14-
A---------------------------------------------------
E---------------------------------------------------
    Cmaj9     D
E----12-12-14-15--17b19-17-15-17b19r17-15----
B---12------------------------------------17-
G--12----------------------------------------
D-14-----------------------------------------
A--------------------------------------------
E--------------------------------------------
 B/D#                 Em7
E--------------------------------------15b17-15-12-
B-----17-17-15-17----15----------------------------
G-/16-------------16----12-14-16-12-14-------------
D--------------------------------------------------
A--------------------------------------------------
E--------------------------------------------------]

Verse:		
Em7          A
When our hearts were young
We put our hands into the flames
Em7           A
Felt the heat from our emotions
       Am
We had fire in our veins

All those night we'd spend
 B
Alone in your room
Am
Through my silent thoughts
  Bm  Cm9 D B/D#
I still remember

Chorus:		
Cmaj9         Em7
We would use the power of love
Cmaj9         Em7
Free our souls in endless love
Cmaj9
We would sacrifice
   Em  D   Bm
Our hopes and dreams
      Bm   Cm9
Because without love
   D           B/D#
Our world would surely die

Verse:		
When our hearts were young
We never thought that
Life would change
Now the seasons Go on
Oh why Do we shelter from the rain
And all those nights we'd spend
Alone in your room
Through my silent thoughts
I still remember

Chorus:		
Cmaj9         Em7
We would use the power of love
Cmaj9         Em7
Free our souls in endless love
Cmaj9
We would sacrifice
   Em  D   Bm
Our hopes and dreams
      Bm   Cm9
Because without love
   D           B/D#
Our world would surely die

Bridge:		
      Em
When our hearts were young
     D
We had fire in our veins
   C
And each time we touched
    Am       B
We'd melt in the flames
       Em
When our hearts were young
       D
We knew pleasure, we knew plain
   C
But each time we kissed
    Am       Bm
We'd burn in the flames
       Cm9     D B/D#
Feel the fire in our veins

Guitar solo:
  Em7          A
[E------------------------------------------
B------------------------------------------
G-----------7-7-------------------------6--
D-----5-7-9-----9p7-5-7p5-----------5------
A-5h7---------------------7-5-4-5-7---4----
E------------------------------------------
  Em7            A
E---------------------------------------------
B---------------------------------------------
G-129-9-9-7-7-7-9h7---7-9h7------------------
D-129-9-9-----------9-------9-75-5-5-5h7p5--
A---------------------------------------------
E---------------------------------------------
  Am
E-10-12p10------------------------------
B----------12p10-12p10-12---/15-15-15---
G---------------------------------------
D---------------------------------------
A---------------------------------------
E---------------------------------------
  B       Am
E-17b19-17b19r17p15-------------------------------------
B-------------------17---15-12-12-1210-10-12-10p8-10--
G-------------------------------------------------------
D-------------------------------------------------------
A-------------------------------------------------------
E-------------------------------------------------------]
  B (use the vibrato)
[E---------15---17-----------------
B-15--17--------------------------
G---------------------------------
D---------------------------------
A---------------------------------
E---------------------------------]
  I sti-ill re-member...

xChorus:		
      Em
We would use the power of love
Cmaj9         Em7
Free our souls in endless love
Cmaj9
We would sacrifice
   Em  D   Bm
Our hopes and dreams
      Bm   Cm9
Because without love
   D           B/D#
Our world would surely die

Chorus:		
Cmaj9         Em7
We would use the power of love
Cmaj9         Em7
Free our souls in endless love
Cmaj9
We would sacrifice
   Em  D   Bm
Our hopes and dreams
      Bm   Cm9
Because without love
   D           B/D#
Our world would surely die

Guitar solo:
           Em7
[E-12-14-15-17- mute -17b19r17p15-----------
B---------------------------------17-------
G------------------------------------------
D------------------------------------------
A------------------------------------------
E------------------------------------------
         A      Em7
E--------15-14------------17b19-17-15-----
B-----15-------15-12-15---------------17--
G--16-------------------------------------
D-----------------------------------------
A-----------------------------------------
E-----------------------------------------
         A
E--------15-14----------12--
B-----15-------15-12--------
G--16----------------14-----
D---------------------------
A---------------------------
E---------------------------]

DBL LEAD GUITAR:
Guitar#1
  Em7
[E-------14- use vibrato ---
B----15--------------------
G-16-----------------------
D--------------------------
A--------------------------
E--------------------------
            
 Guitar#2           
 Em7        
E--------------------------
B-------15-- use vibrato --
G----12--------------------
D-14-----------------------
A--------------------------
E--------------------------]
  Guitar#1
  A
[E-------12- use vibrato ----
B----14---------------------
G-12------------------------
D---------------------------
A---------------------------
E---------------------------
             
 Guitar#2      
 A          
E---------------------------
B-------14-- use vibrato ---
G----12---------------------
D-14------------------------
A---------------------------
E---------------------------]
Repeat the dbl lead
 
 

Видео