Uriah Heep - Feels Like, аккорды

Прокрутка
Тональность
Шрифт
100
Bass guitar Intro before guitar Intro:
C - - - Eb - - - C - - - Eb - - - 
C - - - Eb - - - C - - - Eb - - - 
 
Guitar Intro:
NB! Play this guitar theme below in the chorus
except where chords are inserted!
[E----------------------------------------
B----------------------------------------
G----------------------------------------
D----------1-0---------------------------
A-3-3-1-3------3-1--3-3-1-3-3------------
E------------------------------3-3-1-3-3-

E----------------------------------------
B----------------------------------------
G----------------------------------------
D----------1-0---------------------------
A-3-3-1-3------3-1--3-3-1-3-3------------
E------------------------------3-3-1-3-3-]

Guitar solo:
[E-18----------18-----18----------------18---------
B-18b20r18-16-18b20--18b20r18-16-18b20----18b20---
G-------------------------------------------------
D-------------------------------------------------
A-------------------------------------------------
E-------------------------------------------------

E-------------------------------------------------
B-16b18-16b18-16b18-16b18-16b18-16b18-16b18-16b18-
G-------------------------------------------------
D-------------------------------------------------
A-------------------------------------------------
E-------------------------------------------------

E-------------------------------------------
B-16b18-16b18-16b18-16b18-16b18r16-13-11/13-
G-------------------------------------------
D-------------------------------------------
A-------------------------------------------
E-------------------------------------------]

Verse:		
Eb - Cm
I can feel your sadness
 Eb - Cm
From what I said to you
   G#
I'm drinking my forgiveness
   Bb
So restless and confused
Eb - Cm
I don't know what I see
     Eb - Cm
But it looks a lot like love
 G#
Showing me something
 F       G       G#
Deeper then deep in my soul

Chorus: (play the guitar theme except where chords indicated!)
Bb         (guitar theme from here)
And it makes me feel like
I'm at the point of no return - feels like
G#       Bb
I'm at the point
It makes me feel like
I'm at the point of no return - feels like
G#       Bb
I'm at the point

Verse:		
I was drifting through the days
With nowhere else to turn
I finally discovered
How much I have to learn
I shouldn't be afraid
For you to bring my love
Taking me somewhere
Deeper than deep in my soul

Chorus: (play the guitar theme except where chords indicated!)
Bb         (guitar theme from here)
And it makes me feel like
I'm at the point of no return - feels like
G#       Bb
I'm at the point
It makes me feel like
I'm at the point of no return - feels like
G#       Bb
I'm at the point

Guitar:
[E--------------------
B--------------------
G--------------------
D-8-10--8-10--3-5----
A-6-8---6-8---1-3----
E--------------------]
This time my heart will lead the way

[E-------------------------------------------
B-------------------------------------------
G-------------------------------------------
D-8-10--8-10-12-8-----1----8-10--8-10--3-5--
A-6-8---6-8--10-6-1-3---3--6-8---6-8---1-3--
E-------------------------------------------]
To win the game you've got to play

[e------------
b------------
g------------
d-8-10--8-10-
a-6-8---6-8--
e------------]

Guitar solo:(backed by the guitar theme in D)
[E-15b17-15p13-------------------------------------
B-------------15-15---------11--------------------
G---------------------10b11----10b11r10-7p5-----7-
D-------------------------------------------7p5---
A-------------------------------------------------
E-------------------------------------------------

E-15b17-15p13---------13p12-------15p13p12----13--
B-------------15-15---------15-13----------15-----
G-------------------------------------------------
D-------------------------------------------------
A-------------------------------------------------
E-------------------------------------------------

E-15b17-15p13---------------------------------
B-------------15-15---10-10-10----------------
G---------------------10-10-10----------------
D---------------------10-10-10-12p10-------12-
A------------------------------------12p10----
E---------------------------------------------

E-15b17-15p13----------------------20-21-21b22-
B-------------15-15----20-18-18-18-------------
G----------------------------------------------
D----------------------------------------------
A----------------------------------------------
E----------------------------------------------]

Verse:		
You love me like a lover
I see it in your face
No need to think it over
No need to run the race
I don't know if you planned it
But you're driving me insane
Telling me something
Over and over again

Chorus: (played like before):
And it makes me feel like
I'm at the point of no return - feels like
I'm at the point
It makes me feel like
I'm at the point of no return - feels like
I'm at the point
 
 

Видео