Запрещают песни Цоя, Агата Кристи, Наутилус Помпилиус, Зиверт
Отвечаем в отдельной теме

Ваганыч - У И В, аккорды

Прокрутка
Тональность
Шрифт
100
[Вступление]:
Am G C E x4

Тема на мелодике/пианике (вступает после 2-ого проигрыша аккордов во вступлении):
e |---------------------------------|---------------------------------||
b |------------------------------15-|-13------12-------13--12--13--12-||
g |-14------------------------------|---------------------------------||
d |-----14--------------------------|---------------------------------||
a |---------------------------------|---------------------------------||
e |---------------------------------|---------------------------------||

e |---------------------------------|-12------------------------------||
b |------------------------------15-|---------15-------12-------------||
g |-14------------------------------|---------------------------------||
d |-----14--------------------------|---------------------------------||
a |---------------------------------|---------------------------------||
e |---------------------------------|---------------------------------||

[Куплет 1]:
           Am    G
Убьём их всех!
          C          E
Пусть мучаются и кричат.
           Am    G
Убьём их всех!
           C           E
Пусть заявлений настрочат,

[Припев]:
e |---------------------------------|---------------------------------||
b |---------------------------------|-13------12----------------------||
g |-----------------12--------------|-----------------14--------------||
d |-15------------------------------|---------------------------------||
a |---------------------------------|---------------------------------||
e |---------------------------------|---------------------------------||

e |---------------------------------|---------------------------------||
b |-15-------------12---------------|---------------------------------||
g |---------------------------------|-----------------14--------------||
d |---------------------------------|-14------------------------------||
a |---------------------------------|---------------------------------||
e |---------------------------------|---------------------------------||

             F      G
Статей в журнал,
           C     E | Am
Пусть засирают Телеграмм.
           F    G
Убьём их всех!
       E           Am
И ничего не будет нам.

[Куплет 2]:
         Am    G
Сначала тех,
         C        E
Кто обличает палача.
           Am    G
Убьём их всех!
         C            E
А остальные пусть молчат.

[Припев]:
           F      G
До них дойдём,
          C    E  |  Am
Если не сдохнут по пути,
             F      G
Ведь жизнь идёт
         E          Am
И много целей впереди.

[Куплет 3]:
           Am    G
Убьём их всех!
         C           E
Пока не кончатся совсем,
          Am    G
А когда всё -
           C         E
Ты уж прости меня сосед.

[Припев]:
         F      G
Убьём твоих.
             C   E  | Am
Нас зря считали за двоих.
         F      G
Детей чужих
              E         Am
Мы крепко примем как своих.

[Куплет 4]:
           Am    G
Убьём их всех!
             C          E
Тех что за тридевять земель.
           Am    G
Убьём их всех!
          C           E
Кто согласиться не сумел.

[Припев]:
          F      G
Убьём совсем.
          C     E  |  Am
Пускай летят ракеты вдаль.
           F      G
Убьём их всех!
       E           Am
И никому не будет жаль.

[Куплет 5]:
          Am    G
Наступит мир -
        C            E
Земля очистится от лжи.
        Am    G
Убили всех,
        C          E
Кто агитировал за жизнь.

[Припев]:
            F      G
Но есть подвох:
             C       E   |   Am
Ведь после всех смертельных драк -
           F      G
Если не сдох,
          E           Am
То ты предатель или враг.
        Am
Убили всех!

[Концовка]: (аккорды куплета и припева)
Am G C E x2
F | G | C E | Am
F G E Am 

Комментарий автора:

Бой играй так: Ⓑ_▲_Ⓑ▼▲_ , где Ⓑ есть Бас (можно
бить по басовым струнам).
Нижнее подчеркивание означает паузу. 
 
 
Свернуть Распечатать

Аппликатуры аккордов

Аккорд AmАккорд GАккорд CАккорд EАккорд F
помощники
plumboomerl_Dima_l
10,001 35 09.04.2022

Видео