Valve Studio Orchestra - Dota 2 main theme, аккорды

Прокрутка
Тональность
Шрифт
100
E|-----2--------|--0--2--3-------5--|---7--2-----------|
B|--0-----------|------------3------|------------------|
G|--------------|-------------------|------------------|
D|--------------|-------------------|------------------|
A|--------------|-------------------|------------------|
E|--------------|-------------------|------------------|

E|-----2--------|--0--2--3-------7--|---5--3--2--3-----|
B|--0-----------|------------1------|------------------|
G|--------------|-------------------|------------------|
D|--------------|-------------------|------------------|
A|--------------|-------------------|------------------|
E|--------------|-------------------|------------------|

E|--0--10-------|--8---7---5---7----|---8---7-----0----|--8--|
B|--------------|-------------------|------------------|-----|
G|--------------|-------------------|------------------|-----|
D|--------------|-------------------|------------------|-----|
A|--------------|-------------------|------------------|-----|
E|--------------|-------------------|------------------|-----|

E|--7----0------|--2---------3---5--|---2-3-2-0-2------|
B|--------------|-------------------|------------------|
G|--------------|-------------------|------------------|
D|--------------|-------------------|------------------|
A|--------------|-------------------|------------------|
E|--------------|-------------------|------------------|
 
 
Свернуть Распечатать

Видео