Wallows - 1980s Horror Film, аккорды

Прокрутка
Тональность
Шрифт
100
Intro:
e|----2------2------2-----2-----|----2------2------2------2------------------|
B|-----3------3------3-----3----|----3------3------3------3------------------|
G|--------0--------------0------|------0---------------0---------------------|
D|-0-------------2-----4------4-|0-------------2------4------4---------------|
A|------------------------------|--------------------------------------------|
E|------------------------------|--------------------------------------------|

Verse: Same as the intro!
e|----2------2------2-----2-----|----2------2------2------2------------------|
B|-----3------3------3-----3----|----3------3------3------3------------------|
G|--------0--------------0------|------0---------------0---------------------| x 4
D|-0-------------2-----4------4-|0-------------2------4------4---------------|
A|------------------------------|--------------------------------------------|
E|------------------------------|--------------------------------------------|

Chorus:
G              A
She called me up
D           Em
And let me in
G                  A
I couldn't feel my legs
G               A
She walked me back
D         Bm
Into her room
             G
But just to see
A
А 1980s horror film

Verse:
e|----2------2------2-----2-----|----2------2------2------2------------------|
B|-----3------3------3-----3----|----3------3------3------3------------------|
G|--------0--------------0------|------0---------------0---------------------| x 4
D|-0-------------2-----4------4-|0-------------2------4------4---------------|
A|------------------------------|--------------------------------------------|
E|------------------------------|--------------------------------------------|

Chorus:
G              A
It seemed so long
D           Em
I need someone
G                     A
I don't know what to say
G                 A
She was sitting there
D                  Bm
I could touch her hair
              G
But still we watched
A
А 1980s horror film

Bridge:
D                           Bm     A
Jamie, I don't know what to say to you
D                           Bm A
I feel you're always on my mind
Em              G           D
But now that I know what I need
     A			 Em	     G
I'm taking the long way round in my mind
	  D
It's not right
    A		        Em	G
I can't help the way I feel anymore
       D       A	    Em
And I need to ask you Jamie oh,
        G
Can it be?
	  D		 A
That you feel, this way too?

Chorus:
G		   A
The lights were off
D      		Em
The mood was right
G		       A
She came and laid with me
G		    A
I looked into her eyes
D		      Bm
And tried to make her mine
              G
But then she said
A
"I'm really not that into guys"

Outro:
e|----2------2------2-----2-----|----2------2------2------2------------------|
B|-----3------3------3-----3----|----3------3------3------3------------------|
G|--------0--------------0------|------0---------------0---------------------| x 2
D|-0-------------2-----4------4-|0-------------2------4------4---------------|
A|------------------------------|--------------------------------------------|
E|------------------------------|--------------------------------------------|
 
 
Свернуть Распечатать

Видео