Zombie Rob - Living Dead Girl, аккорды

Прокрутка
Тональность
Шрифт
100
this tab wasn't done by me... i found it on another website and thought that it sounded a 
bit closer than the one posted here...

TUNING: standard (E,A,D,G,B,E)


INTRO/CHORUS: 
                                                          
E|--------------------|--------------------| 
B|--------------------|--------------------|
G|--------------------|--------------------|
D|--4--4-----4-----2--|--4--4-----4-----2--|
A|--4--4-----4-----2--|--4--4-----4-----2--|
E|--2--2-----2-----0--|--2--2-----2-----0--|
                                                                                                                       E|--------------------|--------------------|--------------------|
B|--------------------|--------------------|--------------------|
G|--------------------|--------------------|--------------------|
D|--4--4-----4-----2--|--7--7-----7-----7--|--4--4-----4-----2--|
A|--4--4-----4-----2--|--7--7-----7-----7--|--4--4-----4-----2--|
E|--2--2-----2-----0--|--5--5-----5-----5--|--2--2-----2-----0--|
                                                                                                                        E|--------------------|--------------------|--------------------|
B|--------------------|--------------------|--------------------|
G|--------------------|--------------------|--------------------|
D|--4--4-----4-----2--|--4--4-----4-----2--|--7--7-----7-----5--|
A|--4--4-----4-----2--|--4--4-----4-----2--|--7--7-----7-----5--|
E|--2--2-----2-----0--|--2--2-----2-----0--|--5--5-----5-----3--|
                                                            VERSE: (7 beat rest between each F# power chord)    
                                                       
E|--------------------------|--------------------------|
B|--------------------------|--------------------------|
G|--------------------------|--------------------------|
D|--4-----------------------|--------------------------|
A|--4-----------------------|--------------------------|
E|--2-----------------------|--------------------------|