Помогите подобрать аккорды

Ребят, хотел бы узнать, как играть песню "позвони" - fem.love. не могу найти ни аккордов, ни перебора
Профиль Skillssss
@Skillssss
  • Вопрос задан
  • 745 просмотров
  • 1
Все комментарии (3)
Подписаться
ReVisOr8 октября в 20:32:45
  новый
Рейтинг комментария
0
Вступление:
   A#m      С#       G#m       G#m              (два раза)
E|------------------------------------------------------------(1)
B|------1-2------4------------------------------------------(2)
G|---3--------------5-------7-6-------6-7-----------------(3)
D|--------------6---------7---------7-----------------------(4)
A|-1---------4-----------------------------------------------(5)
E|----------------------4---------4--------------------------(6)

P.s.: на второй раз в последнем G#m на третьей струне 6 и 7 не играем

Припевы:
          A#m                F#                      G#m
Прости, во мне умирают остатки души
G#m                                                    A#m
Я который день, не ощущаю, что я жив
                      F#                    G#m
Холодно, но сука не позвонит
G#                                               A#m
Холодно, но сука не позвонит

Куплеты:
A#m            F#            G#m
Мне плевать на тебя
G#m
Хоть и обещали, что не будем врать
A#m        F#                G#m
Я соврал, что плевать
G#m
Чтоб увидеть что ты все ещё жива

P.s.: бой в припеве и куплете можно использовать такой: ↓ ↓ ↑↑ ↓↑↓↑ (в припеве играем по динамичней)
Бой делится таким образом:
-первый аккорд: ↓ ↓ ↑
-второй аккорд: ↑ ↓↑↓↑
-третий аккорд: ↓ ↓ ↑↑ ↓↑↓↑
ReVisOr9 октября в 11:01:11
  новый
Рейтинг комментария
0
Во вступлении ошибся
E|------------------------------------------------------------(1)
B|------1-2------4------------------------------------------(2)
G|---3--------------5-------6-5-------5-6-----------------(3)
D|--------------6---------6---------6-----------------------(4)
A|-1---------4-----------------------------------------------(5)
E|----------------------4---------4--------------------------(6)
Skillssssавтор9 октября в 13:12:55
  новый
Рейтинг комментария
0
@ReVisOr большое спасибо)

Только зарегистрированные пользователи могут оставлять комментарии. Войдите, пожалуйста.