Какой перебор к песне ЖЩ

Не могу никак определить перебор в начале песни 700000000. Помогите, пожалуйста
https://www.youtube.com/watch?v=zng-SqN7on8 сама песня
Профиль gitarist3000
@gitarist3000
  • Вопрос задан
  • 1,012 просмотра
  • 2
Все комментарии (3)
Подписаться
drbebrtsk6 августа в 7:37:48
 
Рейтинг комментария
0
6|--------------------|
5|--5----------------|
4|--------------------| х2
3|-------7------7---|
2|-----------6-------|

6|--------------------|
5|--8----------------|
4|--------------------| х2
3|-------7------7---|
2|-----------6-------|

6|--6----------------|
5|--------------------|
4|--------------------| х2
3|-------7------7---|
2|-----------6-------|

6|--5----------------|
5|--------------------|
4|--------------------| х2
3|-------7------7---|
2|-----------6-------|
Профиль gitarist3000
gitarist3000автор6 августа в 14:10:40
 
Рейтинг комментария
0
@drbebrtsk спасибо большое!
smelkov9 августа в 8:09:37
 
Рейтинг комментария
0
Это было и правда полезно

Только зарегистрированные пользователи могут оставлять комментарии. Войдите, пожалуйста.