Машина Времени, песня "Крысы"

Здравствуйте, помогите, пожалуйста, найти или подобрать линию баса и соло к песне группы Машины Времени "Крысы". Заранее благодарен!
Профиль vmarkushik
@vmarkushik
  • Вопрос задан
  • 603 просмотра
  • 1
Все комментарии (1)
Подписаться
ReVisOr21 ноября 2022 в 23:43:00
 
Рейтинг комментария
0
Баса у меня, к сожалению, нет, но есть акустика :)
Перенести, если нужно, думаю, труда не составит

A|-----------------------2-2-2-2---0-2-4--------------------(5)
E|--2-2-2-2-4-4-4-4-----------2----------------------------(6)

A|-----------------------2-2-2-2------------------------------(5)
E|--2-2-2-2-4-4-4-4-----------2-5-4-2--------------------(6)

A|-----------------------2-2-2-2-4-2-0----------------------(5)
E|--2-2-2-2-4-4-4-4-------------------4--------------------(6)

A|-----------------------2-2-2-2-4-2-0----------------------(5) (последние четыре ноты играются чуть в другом ритме *1)
E|--2-2-2-2-4-4-4-4-------------------2--------------------(6)

E|--2-5-4-2-2-5-4-2-2-5-4-2-2-5-4----------------------(6) (здесь я плохо слышу, что играет)

A|------------2--------4--------4-2-0------------------------(5)
E|--2------------------------------------4---------------------(6)

E|--2-5-4-2-2-5-4-2----------------------------------------(6)

Далее он повторяется ещё раз, на второй раз до пятой строки и по новой

В соло я мало смыслю, да и многовато нот, чтоб разобрать в табулатуру поэтому разбирать не буду
Можно, например, просто сыграть аккорды проигрыша боем: ↓ * ↑↑ *

*1
https://youtu.be/x2gIkmFRJ3w?t=45 если тайм код слетел - 0:45 секунда хорошо слышно, как играть последние 4 ноты

Только зарегистрированные пользователи могут оставлять комментарии. Войдите, пожалуйста.