Помогите подобрать перебор для песни Стрыкало - Бувайте

Хочу выучить эту песню именно как в оригинале, знаю что её можно играть и восьмёркой, но как по мне перебор более подходит. Буду благодарен за помощь
Профиль Sheriff_Alt_Tab
@Sheriff_Alt_Tab
  • Вопрос задан
  • 1,811 просмотр
  • 0
Все комментарии (1)
Подписаться
user_161636 9 января 2023 в 21:11:55
 
Рейтинг комментария
+1
---------- ----------
---1-3-1-- ---3-5-3--
--2-2-2-2- --4-4-4-4-
-3-------- -5--------
---------- ----------
---------- ----------

---------- ----------
----001--- ---33321--
---2---2-- -0--------
--2-----2- -2--------
-0-------- -3--------
---------- ----------

Только зарегистрированные пользователи могут оставлять комментарии. Войдите, пожалуйста.