Не могу найти аккорды

Не могу ни где найти аккорды на гитару Омельчук Алексей - Echoes of the Past (Guitar Version) Можете помочь?
Профиль Stas110274
@Stas110274
  • Вопрос задан
  • 929 просмотров
  • 0
Все комментарии (1)
Подписаться
ReVisOr 18 марта 2023 в 23:42:46
 
Рейтинг комментария
0
Dm | Am | Dm (G E) | Am
Dm G | Am | Dm (G E) | Am
Dm | Am | Dm (G E) | (F G) Am
Dm | Am | Dm (G E) | Am

По табам разобрал до середины - дальше устал. Но, думаю, так тоже неплохо:
      Dm                                       Am                                       G   E   Am
e||----------------------------------------------------------------------------3------------------------------
B||--------1--3---3-------------0-1--------0--------------1--3---3-------0----------------0~1~0-----
G||----2-------------2-------2------------2----2-------2-------------2----0---0---2-----2----------2--
D||--------0-------------------------------------------------0---------------0---2---2--------------------
A||--0---------------------0-----0------0------------0----------------------2---2---0---0---------------
E||----------------------------------------------------------------------------3------------------------------
      Dm                       G            Am
e||----------------------------------------------
B||--------1--3---3-----------0--1--------0--
G||----2------------2-------0-----------2----2
D||----------------------------------------------
A||--0-----0---------------------------0-------
E||-------------------------3--------------------

Только зарегистрированные пользователи могут оставлять комментарии. Войдите, пожалуйста.