Black Sabbath - Sweat Leef, аккорды

Прокрутка
Тональность
Шрифт
100
E|-------------------------|play this part x14
B|-------------------------|
G|----------7--5------5--|
D|---7--7---7--5------5--|
A|---7--7---5--3--0---3--|
E|---5--5------------------|

interlude riff 2x
E|------------------|
B|------------------|
G|------------------|
D|---7---5/9---14-|
A|---7---5/9---14-|
E|---5---3/7---12-|

bridge then this part is overdubbed...
E|-----------------------|----------------| 5x then slide up
B|-----------------------|---3-4--3h4p3p0-| to 15 and do the solo
G|-----------------------|----------------|
D|---5~--5-5-5-5--5/6/7--|----------------|
A|---5~--5-5-5-5--5/6/7--|----------------|
E|---3~--3-3-3-3--3/4/5--|----------------|

heres what i do for the solo, im not sure if its right or not but it sounds cool
E|-------------------------------------------------------|
B|--15^--15^--12h15p12h15--------------------------------|
G|-------------------------14--14p12-------12------------|
D|------------------------------------14-------14p12-----|
A|----------------------------------------------------14-|
E|-------------------------------------------------------|
 
 

Видео